Gametabs
Home
Tabs
Random

Pokke Village

Average rating: 5.000

3 ratings

Composer:

Tabber:

Style:

Instrument:

Created: January 20, 2011 at 12:00 AM

            Theme of Pokke Village
Monster Hunter Freedom 2
Composed by Akihiko Narita
Arranged by Yasunori Iwasaki
Tabbed by hslesperance
1/20/11

Standard Tuning


Guitar 1

  W                W                W                W
|----------------|----------------|----------------|---------------------|
|----------------|----------------|----------------|---------------------|
|----------------|----------------|----------------|---------------------|
|----------------|----------------|----------------|---------------------|
|----------------|----------------|----------------|---------------------|
|----------------|----------------|----------------|---------------------|


  W                W                W                H.               Q
|----------------|----------------|----------------|-----------------------|
|----------------|----------------|----------------|-----------------------|
|----------------|----------------|----------------|------------------2----|
|----------------|----------------|----------------|-----------------------|
|----------------|----------------|----------------|-----------------------|
|----------------|----------------|----------------|-----------------------|


  H        E  E E E   T T E.   +Q     Q   Q
|-----------------5-|-3-5-3----(3)--------3--|
|-3-----------2-3---|-----------------5------|
|-------------------|------------------------|
|-------------------|------------------------|
|-------------------|------------------------|
|-------------------|------------------------|


  H        Q   E E   H        Q   Q
|-2----------------|------------------|
|--------------5-3-|--------------2---|
|------------------|-2----------------|
|------------------|------------------|
|------------------|------------------|
|------------------|------------------|


  H       E E E E   H      Q   E E   H.             +E  S S   H        Q   Q
|-----------------|----------------|-2--------------(2)-3-2-|-----------------|
|-3-----------2-3-|-5------------3-|------------------------|-5---------------|
|-----------4-----|------------4---|------------------------|--------------2--|
|-----------------|----------------|------------------------|-----------------|
|-----------------|----------------|------------------------|-----------------|
|-----------------|----------------|------------------------|-----------------|


  H        Q   Q    Q   Q    Q   E E
|-----------------|----------------6-|
|----------2---3--|-5---2--------2---|
|-4---------------|------------------|
|-----------------|------------------|
|-----------------|------------------|
|-----------------|------------------|


  +S  E.   +H           Q    H        Q   E E
|-(6)-5----(5)----------2--|------------------|
|--------------------------|-3------------2-3-|
|--------------------------|------------------|
|--------------------------|------------------|
|--------------------------|------------------|
|--------------------------|------------------|


  H        E  E E E   Q.     E a  H
|-5---------------7-|-5--------0h=2-----|
|-------------2-3---|-------------------|
|-------------------|-------------------|
|-------------------|-------------------|
|-------------------|-------------------|
|-------------------|-------------------|


  H.            +E  E   +H       Q    Q
|---------------------|------------------|
|-2-------------(2)-3-|-(3)--------------|
|---------------------|---------------4--|
|---------------------|------------------|
|---------------------|------------------|
|---------------------|------------------|


  Q    Q   Q  Q     Q  +E  E +H        Q   Q    Q  Q    Q  +E  Q  Q  E
|------2---------|--2--(2)----------|--------------2--|-----------------|
|----------5-----|---------5-(5)----|------5----3-----|-2--(2)-------2--|
|-------------4--|------------------|-----------------|--------4--------|
|----------------|------------------|-----------------|-----------------|
|----------------|------------------|-----------------|-----------------|
|----------------|------------------|-----------------|-----------------|


  E E Q   Q  Q    Q.   Q  Q  E   Q.   E +H        +Q   H.
|---------------|--------------|----------------|---------------|
|-----3---2-----|-3----2-----2-|----------------|---------------|
|-4----------0--|---------4----|------2-(2)-----|-(2)-----------|
|---------------|--------------|----------------|---------------|
|---------------|--------------|----------------|---------------|
|---------------|--------------|----------------|---------------|


  Q  Q  Q  Q    Q  +E  E +H       Q  Q   Q  Q    Q  +E  q  q  E
|----2--------|-2--(2)----------|-----------5--|--------2--2-----|
|-------5-----|--------5-(5)----|----5---3-----|-2--(2)-------2--|
|----------4--|-----------------|--------------|-----------------|
|-------------|-----------------|--------------|-----------------|
|-------------|-----------------|--------------|-----------------|
|-------------|-----------------|--------------|-----------------|


  H    E E E E   S.T H.      S S   W          H    E E E E
|--------------|-5h7p5-----------|----------|------------5--|
|-3------2-3-5-|-------------8p7p|=5--------|--------2-3----|
|--------------|-----------------|----------|---------------|
|--------------|-----------------|----------|---------------|
|--------------|-----------------|----------|---------------|
|--------------|-----------------|----------|---------------|


  +Q.     Q     E E E   T T E. E Q     E E E
|-(5)---------------7-|-5h7p5--------------9-|
|---------------2-3---|--------8-7-------7---|
|---------------------|----------------9-----|
|---------------------|----------------------|
|---------------------|----------------------|
|---------------------|----------------------|


   H        E  E  E  S.  T    E  Q   Q  E E E
|-------------------12--12-|-14-12----------7--|
|-10-----------------------|--------15--2-3----|
|--------------9-11--------|-------------------|
|--------------------------|-------------------|
|--------------------------|-------------------|
|--------------------------|-------------------|


  Q.    Q     E E E   Q   E Q     E E E
|-5---------------7-|-5-----5-----3-2-0-|
|-------------2-3---|-------------------|
|-------------------|-------------------|
|-------------------|-------------------|
|-------------------|-------------------|
|-------------------|-------------------|

  |---3---|
  Q   Q   Q    E  E E E   +Q   E E E E E E
|-----------------5-3-2-|-(2)------------7--|
|-2---3---5-------------|--------2-3---3----|
|-----------------------|------------2------|
|-----------------------|-------------------|
|-----------------------|-------------------|
|-----------------------|-------------------|


  Q.   Q  E E E   Q  E Q  E  E E    Q.     E  E E  E  S.  T    E  Q   Q  E E E
|-5-----------7-|-5------------9-|-------------------12--12-|-14-12----------7-|
|---------2-3---|----8-7-----7---|-10-------------10--------|--------15--2-3---|
|---------------|---------9------|---------9-11-9-----------|------------------|
|---------------|----------------|--------------------------|------------------|
|---------------|----------------|--------------------------|------------------|
|---------------|----------------|--------------------------|------------------|


  Q.    Q     E E E   Q   E Q     E T T T T +E    H.      Q    W
|-5---------------7-|-5-----5-----3-2h3p2p0-(0)-|------------|-----------|
|-------------2-3---|---------------------------|-2-------5--|-3---------|
|-------------------|---------------------------|------------|-----------|
|-------------------|---------------------------|------------|-----------|
|-------------------|---------------------------|------------|-----------|
|-------------------|---------------------------|------------|-----------|


  Q   E  E  E   E  E  E    Q    E  E  E   E Q
|-------14-14--------14-|-17---15-14-----------|
|--------------17-17----|----------------17----|
|-----------------------|----------------------|
|-----------------------|----------------------|
|-----------------------|----------------------|
|-----------------------|----------------------|


  Q  E  E  E  E  E  E    H.                  Q
|---------------------|---------------------------|
|------17-17-14----17-|-15tr17--------------------|
|---------------14----|---------------------------|
|---------------------|---------------------------|
|---------------------|---------------------------|
|---------------------|---------------------------|


  Q   E  E  E   E  E  E    Q    E  E  E   E Q
|-------14-14--------14-|-17---15-18-----22----|
|--------------17-17----|----------------------|
|-----------------------|----------------------|
|-----------------------|----------------------|
|-----------------------|----------------------|
|-----------------------|----------------------|


  Q  E  E  E  E  E  E    H.               Q
|---------------------|------------------------|
|------17-17-14-------|------------------------|
|---------------14----|-14----------------2----|
|------------------14-|------------------------|
|---------------------|------------------------|
|---------------------|------------------------|


  H       +E  E E E   H      Q  Q    H.         E E   H.         Q
|-----------------5-|-3------0--3--|-2----------0---|----------------|
|-3-------(3)-2-3---|--------------|--------------3-|------------2---|
|-------------------|--------------|----------------|-2--------------|
|-------------------|--------------|----------------|----------------|
|-------------------|--------------|----------------|----------------|
|-------------------|--------------|----------------|----------------|


  H       +E  E E E   H        Q   E E   H.           E E   H.         Q
|-------------------|-0----------------|-2------------3-2-|-0--------------|
|-3-------(3)-0-2-3-|--------------0-3-|------------------|----------------|
|-------------------|------------------|------------------|-----------14---|
|-------------------|------------------|------------------|----------------|
|-------------------|------------------|------------------|----------------|
|-------------------|------------------|------------------|----------------|


   H     Q   Q     Q   Q  Q   E  E    H.       Q     H.      E E
|---------------|---------------18-|-17-------14--|---------------|
|-------14--15--|-17--14-----14----|--------------|-15-------2-3--|
|-16------------|------------------|--------------|---------------|
|---------------|------------------|--------------|---------------|
|---------------|------------------|--------------|---------------|
|---------------|------------------|--------------|---------------|


  H    +E  E E E   H    H      W          H      +E  E E E
|-5----(5)-----7-|-5----2----|----------|----------------5--|
|----------2-3---|-----------|-2--------|-3------(3)-2-3----|
|----------------|-----------|----------|-------------------|
|----------------|-----------|----------|-------------------|
|----------------|-----------|----------|-------------------|
|----------------|-----------|----------|-------------------|


  +Q.     Q     E E E   T T E.   E Q     E E E
|-(5)---------------7-|-5h7p5----------------9-|
|---------------2-3---|----------8-7-------7---|
|---------------------|------------------9-----|
|---------------------|------------------------|
|---------------------|------------------------|
|---------------------|------------------------|


   H        E  E  E  S.  T    E  Q   Q  E E E
|-------------------12--12-|-14-12----------7-|
|-10-----------------------|--------15--2-3---|
|--------------9-11--------|------------------|
|--------------------------|------------------|
|--------------------------|------------------|
|--------------------------|------------------|


  Q.     Q     E E E   Q   E Q     E E E
|-5----------------7-|-5-----5-----3-2-0-|
|--------------2-3---|-------------------|
|--------------------|-------------------|
|--------------------|-------------------|
|--------------------|-------------------|
|--------------------|-------------------|

  |---3---|
  Q   Q   Q E E  E E   +Q    E E E E E E
|-------------5--3-2-|-(2)-------------7-|
|-2---3---5----------|---------2-3---3---|
|--------------------|-------------2-----|
|--------------------|-------------------|
|--------------------|-------------------|
|--------------------|-------------------|


  Q.     Q     E E E   Q   E Q     E E E
|-5----------------7-|-5---------------9-|
|--------------2-3---|-----8-7-------7---|
|--------------------|-------------9-----|
|--------------------|-------------------|
|--------------------|-------------------|
|--------------------|-------------------|


   Q.    E   E E  E  S.  T    E  Q    Q   E E E
|-------------------12--12-|-14-12------------7-|
|-10-------------10--------|---------15---2-3---|
|--------9--11-9-----------|--------------------|
|--------------------------|--------------------|
|--------------------------|--------------------|
|--------------------------|--------------------|


  Q.     Q     E E E   Q   E Q     E T T T T +E    H.      Q    W
|-5----------------7-|-5-----5-----3-2h3p2p0-(0)-|------------|------|
|--------------2-3---|---------------------------|-2-------5--|-3----|
|--------------------|---------------------------|------------|------|
|--------------------|---------------------------|------------|------|
|--------------------|---------------------------|------------|------|
|--------------------|---------------------------|------------|------|


  Q   E  E  E   E  E  E    Q    E  E  E   E Q
|-------14-14--------14-|-17---15-14-----------|
|--------------17-17----|----------------17----|
|-----------------------|----------------------|
|-----------------------|----------------------|
|-----------------------|----------------------|
|-----------------------|----------------------|


  Q   E  E  E  E  E  E    H.                  Q
|----------------------|---------------------------|
|-------17-17-14----17-|-15tr17--------------------|
|----------------14----|---------------------------|
|----------------------|---------------------------|
|----------------------|---------------------------|
|----------------------|---------------------------|


  Q   E  E  E   E  E  E    Q    E  E  E   E Q
|-------14-14--------14-|-17---15-18-----22----|
|--------------17-17----|----------------------|
|-----------------------|----------------------|
|-----------------------|----------------------|
|-----------------------|----------------------|
|-----------------------|----------------------|


  Q   E  E  E  E  E  E    W
|----------------------|-----------------------|
|-------17-17-14-------|-----------------------|
|----------------14----|-14--------------------|
|-------------------14-|-----------------------|
|----------------------|-----------------------|
|----------------------|-----------------------|


   W                +W
|----------------|---------*|
|----------------|---------*|
|-11-------------|-(11)----*|
|----------------|---------*|
|----------------|---------*|
|----------------|---------*|




Guitar 2
                                                             |-3-|
  E E E E +H       E E E E +H       E E E E +H       E E E E S S S E E E
|-------2-(2)----|-------3-(3)----|-------5-(5)----|-----2-3-3p2p0-------|
|-----2----------|-----3----------|---2-5----------|---3-----------3-----|
|---2------------|---3------------|-4--------------|-4---------------4---|
|----------------|----------------|----------------|-------------------5-|
|----------------|----------------|----------------|---------------------|
|----------------|----------------|----------------|---------------------|

                                                              |-3-|
  E E E E +H       E E E E +H       E E E E +H       E  E E E S S S E E E
|-------2-(2)----|-------3-(3)----|-------5-(5)----|------2-3-3p2p0--------|
|-----2----------|-----3----------|---2-5----------|----3-----------3------|
|---2------------|---3------------|----------------|-4----------------4----|
|----------------|----------------|----------------|--------------------5--|
|----------------|----------------|----------------|-----------------------|
|----------------|----------------|----------------|-----------------------|


  E E E E +H          E      E  E  E +H
|-------2-(2)-------|--------------3-(3)-----|
|-----2-------------|-----------3------------|
|---2---------------|--------3---------------|
|-------------------|------------------------|
|-------------------|------------------------|
|-------------------|------------------------|


  E E E E +H         E E E E +H
|-------2-(2)------|-------3-(3)------|
|-----2------------|------------------|
|---2--------------|---2-4------------|
|------------------|------------------|
|------------------|------------------|
|------------------|------------------|


  E E E E E E E E   Q  E E E E E E   E  E E E +E  E  Q        E E E E +H
|---------2-----2-|--------0-------|--------2-(2)-0---------|-------0-(0)-----|
|-----3-----3-----|----0-----0---0-|------3----------3------|-----0-----------|
|---2---2-----2---|-1----1-----1---|----2-------------------|---2-------------|
|-----------------|----------------|------------------------|-----------------|
|-----------------|----------------|------------------------|-----------------|
|-----------------|----------------|------------------------|-----------------|


  E E E E +Q   Q    E E E E +H
|-------3-(3)--3--|-------3-(3)------|
|-----0-----------|-----2------------|
|---0-------------|---3--------------|
|-----------------|------------------|
|-----------------|------------------|
|-----------------|------------------|


   E     E  E  +E  +H        E E E E +H
|--------------------------|-------4-(4)------|
|-----------2--(2)-(2)-----|-----3------------|
|--------2-----------------|---4--------------|
|--------------------------|------------------|
|--------------------------|------------------|
|--------------------------|------------------|


  E E E E +H          E  E E E   +H
|-------0-(0)-------|--------0---(0)----|
|-----0-------------|------2------------|
|---0---------------|----0--------------|
|-------------------|-------------------|
|-------------------|-------------------|
|-------------------|-------------------|


  E  E E E +H            Q   E E E Q.
|--------2-(2)--------|--------2---------|
|------2--------------|------3---5-------|
|----2----------------|------------------|
|---------------------|------------------|
|---------------------|------------------|
|---------------------|------------------|


  E E +Q   H        H         H        Q.    Q.    Q    W
|----------------|-!0---------------|-^0-----0--------|-----------------|
|---0-(0)--------|-!3---------------|-^3--------------|-----------------|
|-0--------------|------------------|-----------------|-----------------|
|----------------|------------------|-----------------|-----------------|
|----------------|------------------|-----------------|-----------------|
|----------------|------------------|-----------------|-----------------|


  Q   H.          W              Q.   H       E    H       H
|-0-------------|--------------|-2----2---------|--2-------2----|
|---------------|--------------|----------------|---------------|
|---------------|--------------|----------------|---------------|
|---------------|--------------|----------------|---------------|
|---------------|--------------|----------------|---------------|
|---------------|--------------|----------------|---------------|


  W             W                 Q  H.          W
|-------------|-----------------|-2------------|-----------------|
|-------------|-----------------|--------------|-----------------|
|-------------|-----------------|--------------|-----------------|
|-------------|-----------------|--------------|-----------------|
|-------------|-----------------|--------------|-----------------|
|-------------|-----------------|--------------|-----------------|


  W              W                 W          W
|--------------|-----------------|----------|---------------|
|--------------|-----------------|----------|---------------|
|--------------|-----------------|----------|---------------|
|--------------|-----------------|----------|---------------|
|--------------|-----------------|----------|---------------|
|--------------|-----------------|----------|---------------|


   E  E E E +H          Q      E E +H
|---------------------|----------0-(0)-------|
|-----0-3-0-(0)-------|--------0-------------|
|---------------------|----------------------|
|---------------------|----------------------|
|---------------------|----------------------|
|---------------------|----------------------|


   E E E E +H                 W
|--------2-(2)-------------|-------------------|
|------3-------------------|-------------------|
|----4---------------------|-------------------|
|--------------------------|-------------------|
|--------------------------|-------------------|
|--------------------------|-------------------|


  Q   E E +H          E E E E +H
|-------2-(2)-------|---0---0-(0)-------|
|-----0-------------|-----0-------------|
|-------------------|-------------------|
|-------------------|-------------------|
|-------------------|-------------------|
|-------------------|-------------------|


  E E   E   E +H           W
|-----------0-(0)-------|-------------------|
|-------0---------------|-------------------|
|---2-------------------|-------------------|
|-----------------------|-------------------|
|-----------------------|-------------------|
|-----------------------|-------------------|


  W               Q  E Q  Q.        E  E Q    H                W
|---------------|----------------|--------------------------|------------------|
|---------------|----0-----------|--0--0-3------------------|------------------|
|---------------|------2---------|--------------------------|------------------|
|---------------|----------------|--------------------------|------------------|
|---------------|----------------|--------------------------|------------------|
|---------------|----------------|--------------------------|------------------|


  Q   E E +H          E E E E +H                  W            H    H
|-------2-(2)-------|---0---0-(0)---------------|------------|-2---------|
|-----0-------------|-----0---------------------|------------|-3---------|
|-------------------|---------------------------|------------|-2---------|
|-------------------|---------------------------|------------|-----------|
|-------------------|---------------------------|------------|-----------|
|-------------------|---------------------------|------------|-----------|


  E E E  E +H              E E  E  E +H
|--------2-(2)----------|----3-----3-(3)-------|
|---2-------------------|----------------------|
|-----------------------|-------3--------------|
|-----------------------|----------------------|
|-----------------------|----------------------|
|-----------------------|----------------------|

                                     |-3-|
  W                      E     E E E S S S E E E
|---------------------|------------3-3p2p0--------|
|---------------------|--0-----3-0---------3------|
|---------------------|----------------------4----|
|---------------------|------------------------5--|
|---------------------|---------------------------|
|---------------------|---------------------------|


  E E E  E +H              E E  E  E +H
|--------2-(2)----------|----------------------|
|---2-------------------|----3-----3-(3)-------|
|-----------------------|-------3--------------|
|-----------------------|----------------------|
|-----------------------|----------------------|
|-----------------------|----------------------|

                                  |-3-|
  W                      E  E E E S S S E E E
|---------------------|---------3-3p2p0--------|
|---------------------|--0--3-0---------3------|
|---------------------|-------------------4----|
|---------------------|---------------------5--|
|---------------------|------------------------|
|---------------------|------------------------|


  E E E E  E  E Q     E E E E +Q   Q     E  E E E E E Q     E  E H     Q
|-------2-------2---|-----0-0-(0)------|--------2-0-------|----------------|
|---0-3----3--0-----|---0--------------|----0-3-----0-----|------0---------|
|-------------------|------------------|------------------|----2-----------|
|-------------------|------------------|------------------|----------------|
|-------------------|------------------|------------------|----------------|
|-------------------|------------------|------------------|----------------|


   W               W                  W              W
|---------------|------------------|--------------|---------------|
|---------------|------------------|--------------|---------------|
|---------------|------------------|--------------|---------------|
|---------------|------------------|--------------|---------------|
|---------------|------------------|--------------|---------------|
|---------------|------------------|--------------|---------------|


  W                W           W          Q  E E  H
|----------------|-----------|----------|----0-2--0---------|
|----------------|-----------|----------|-------------------|
|----------------|-----------|----------|-------------------|
|----------------|-----------|----------|-------------------|
|----------------|-----------|----------|-------------------|
|----------------|-----------|----------|-------------------|


   E  E E E +H          E      E E E +H
|---------2-(2)-------|--------0---0-(0)-------|
|-----0-0-------------|----------0-------------|
|---------------------|------------------------|
|---------------------|------------------------|
|---------------------|------------------------|
|---------------------|------------------------|


   E E E E +H                 W
|--2---0-2-(2)-------------|------------------|
|----0---------------------|------------------|
|--------------------------|------------------|
|--------------------------|------------------|
|--------------------------|------------------|
|--------------------------|------------------|


  E  E E E +H          E E E E +H
|--------2-(2)-------|---0---0-(0)-------|
|----0-3-------------|-----0-------------|
|--------------------|-------------------|
|--------------------|-------------------|
|--------------------|-------------------|
|--------------------|-------------------|


  E E   Q   E Q.        E  E Q   H
|---0-------0--------|-------2-----------|
|-------0-----0------|-----3-------------|
|--------------------|-------------------|
|--------------------|-------------------|
|--------------------|-------------------|
|--------------------|-------------------|


  E  E E E +H          E E E E +H
|----2---2-(2)-------|---0---0-(0)-------|
|------0-------------|-----0-------------|
|--------------------|-------------------|
|--------------------|-------------------|
|--------------------|-------------------|
|--------------------|-------------------|


   Q   E Q.       Q           Q    E  Q.    Q
|--------2-----------------|----------2---------|
|------3-------------------|-------3------------|
|--------------------------|--------------------|
|--------------------------|--------------------|
|--------------------------|--------------------|
|--------------------------|--------------------|


  E  E E E +H          E E E E +H                  W            W
|----0---0-(0)-------|---0---0-(0)---------------|------------|------|
|------0-------------|-----0---------------------|------------|------|
|--------------------|---------------------------|------------|------|
|--------------------|---------------------------|------------|------|
|--------------------|---------------------------|------------|------|
|--------------------|---------------------------|------------|------|


  E E E  E +H              E E  E  E +H
|--------2-(2)----------|----------3-(3)-------|
|-----2-----------------|-------3--------------|
|---2-------------------|----3-----------------|
|-----------------------|----------------------|
|-----------------------|----------------------|
|-----------------------|----------------------|

                                     |-3-|
  E E E  E  H             E     E E E S S S E E E
|---0----0--5----------|----------2-3-3p2p0--------|
|-----2----------------|--------3-----------3------|
|----------------------|--4-------------------4----|
|----------------------|------------------------5--|
|----------------------|---------------------------|
|----------------------|---------------------------|


  E E E  E +H              E E  E  E +H
|--------2-(2)----------|----------3-(3)-------|
|-----2-----------------|-------3--------------|
|---2-------------------|----3-----------------|
|-----------------------|----------------------|
|-----------------------|----------------------|
|-----------------------|----------------------|

                                  |-3-|
  E E E  E  H             E E E E S S S E E E
|---0----0--5----------|------2-3-3p2p0--------|
|-----2----------------|----3-----------3------|
|----------------------|--4---------------4----|
|----------------------|--------------------5--|
|----------------------|-----------------------|
|----------------------|-----------------------|


   H    E E +Q       W
|---------2-(2)--|---------*|
|-------3--------|---------*|
|----------------|---------*|
|--0-------------|---------*|
|----------------|---------*|
|----------------|---------*|

h - hammer on
p - pull off
tr - trill
! - upward arpeggio
^ - downward arpeggio

W - whole
H - half
Q - quarter
E - 8th
S - 16th
T - 32nd
+ - note tied to previous
. - note dotted

Irregular groupings are notated above the duration line

        
Comments

@Timmyb101 (January 21, 2011 at 3:28 PM)

I have been waiting for like months for someone to tab this!


@ZakDank (January 29, 2011 at 3:28 PM)

Simply Amazing!