Gametabs
Home
Tabs
Random

Kuusou Mesorogiwi (TV Size)

Average rating: No ratings

Composer:

Tabber:

Style:

Instrument:

Created: August 24, 2014 at 12:00 AM

            Tempo = 230
Electric Guitar

Legend
L - tied note
x - dead note
h - hammer on/pull off
b - bend
s - slide
~ - vibrato
g - ghost note
> - accentuated note
t - trill
M - palm mute
. - staccato
P - popping (bass)
S - slapping (bass)
+ - tapping
W - wide vibrato
< - fade in
w - whammy bar
= - tremolo picking
v - brush up
^ - brush down
V - pick stroke up
n - pick stroke down


Tuning - Half-Step Down

Eb |----------------------------|----------------------------|
Bb |----------------------------|----------------------------|
Gb |----------------------------|----------------------------|
Db |--------5--------7-----8----|-----7-----5-----2--7-------|
Ab |--------5--------7-----8----|-----7-----5-----2--7-------|
Eb |--0M-0M-3-----0M-5--0M-6----|--0M-5--0M-3--0M-0--5-------|


----------------------------|----------------------------|
----------------------------|----------------------------|
----------------------------|----------------------------|
--------5--------7----------|--8--------7--------5-------|
--------5--------7----------|--8--------7--------5-------|
--0M-0M-3-----0M-5-----0M---|--6-----0M-5-----0M-3-------|


----------------------------|----------------------------|
----------------------------|----------------------------|
----------------------------|----------------------------|
--------5--------7-----8----|-----7-----5-----2--7-------|
--------5--------7-----8----|-----7-----5-----2--7-------|
--0M-0M-3-----0M-5--0M-6----|--0M-5--0M-3--0M-0--5-------|


----------------------------|----------------------------|
----------------------------|----------------------------|
----------------------------|----------------------------|
--------5--------7----------|--8--------7--------5-------|
--------5--------7----------|--8--------7--------5-------|
--0M-0M-3-----0M-5-----0M---|--6-----0M-5-----0M-3-------|


----------------------------|----------------------------|
----------------------------|----------------------------|
----------------------------|----------------------------|
----------------------------|----------------------------|
--2M-2M-2M-2M-2.-2M-2M-2M---|--2.-2M-2M-2M-2M-2M-2M-2M---|
--0M-0M-0M-0M-0--0M-0M-0M---|--0--0M-0M-0M-0M-0M-0M-0M---|


----------------------------|----------------------------|
----------------------------|----------------------------|
----------------------------|--------------------3~------|
----------------------------|----------------------------|
--2M-2M-2M-2M-2--2M-2M-2M---|--2.-2M-2M-2M-2M-2M---------|
--0M-0M-0M-0M-0.-0M-0M-0M---|--0--0M-0M-0M-0M-0M---------|


----------------------------|----------------------------|
----------------------------|----------------------------|
----------------------------|----------------------------|
----------------------------|----------------------------|
--2M-2M-2M-2M-2.-2M-2M-2----|--2.-2M-2M-2M-2M-2M-2M-2M---|
--0M-0M-0M-0M-0.-0M-0M-0----|--0--0M-0M-0M-0M-0M-0M-0M---|


----------------------------|----------------------------|-------|
----------------------------|----------------------------|-------|
----------------------------|--------------------3~------|-------|
----------------------------|----------------------------|-------|
--2M-2M-2M-2M-2.-2M-2M-2M---|--2.-2M-2M-2M-2M-2M---------|-------|
--0M-0M-0M-0M-0--0M-0M-0M---|--0.-0M-0M-0M-0M-0M---------|-------|


----------------------------|----------------------------|
----------------------------|----------------------------|
--5-----------------5--5----|--5--5--x--5-----5--5--5----|
--5-----------------5--5----|--5--5--x--5-----5--5--5----|
--3-----------------3--3----|--3--3--x--3-----3--3--3----|
----------------------------|----------------------------|


----------------------------|----------------------------|
----------------------------|----------------------------|
----------------------------|----------------------------|
----------------------------|----------------------------|
--2-----2M-2M-2M-2M-2-------|--2M-2M-2-----2M-2M-2-------|
--0-----0M-0M-0M-0M-0-------|--0M-0M-0-----0M-0M-0-------|


----------------------------|----------------------------|
----------------------------|----------------------------|
--5-----------------5--5----|--5--5--x--5-----5--5--5----|
--5-----------------5--5----|--5--5--x--5-----5--5--5----|
--3-----------------3--3----|--3--3--x--3-----3--3--3----|
----------------------------|----------------------------|


----------------------------|----------------------------|
----------------------------|----------------------------|
----------------------------|----------------------------|
----------------------------|----------------------------|
--2-----2M-2M-2M-2M-2-------|--2M-2M-2-----2M-2M-2-------|
--0-----0M-0M-0M-0M-0-------|--0M-0M-0-----0M-0M-0-------|


----------------------------|----------------------------|
----------------------------|----------------------------|
----------------------------|----------------------------|
-----------------7----------|--8--------7--------5-------|
-----------------7----------|--8--------7--------5-------|
--0M-0M-3h-0--0M-5-----0M---|--6-----0M-5-----0M-3-------|


----------------------------|----------------------------|
----------------------------|----------------------------|
----------------------------|----------------------------|
-----------------7----------|--8--------7--------5-------|
-----------------7----------|--8--------7--------5-------|
--0M-0M-3h-0--0M-5-----0M---|--6-----0M-5-----0M-3-------|


----------------------------|----------------------------|
----------------------------|----------------------------|
----------------------------|----------------------------|
-----------------7----------|--8--------7--------5-------|
-----------------7----------|--8--------7--------5-------|
--0M-0M-3h-0--0M-5-----0M---|--6-----0M-5-----0M-3-------|


----------------------------|----------------------------|-------|-------|
----------------------------|----------------------------|-------|-------|
----------------------------|----------------------------|-------|-------|
-----------------7----------|--8--------7--------6-------|--5L---|--5----|
-----------------7----------|--8--------7--------6-------|--5L---|--5----|
--0M-0M-3h-0--0M-5-----0M---|--6-----0M-5-----0M-4-------|--3L---|--3----|


-------|-------|-------|-------|----------------------------|
-------|-------|-------|-------|----------------------------|
-------|-------|-------|-------|----------------------------|
--7L---|--7----|--8L---|--8----|--7-----------------7--7----|
--7L---|--7----|--8L---|--8----|--7-----------------7--7----|
--5L---|--5----|--6L---|--6----|--5-----------------5--5----|


----------------------------|-------|----------------------------|
----------------------------|-------|----------------------------|
----------------------------|-------|----------------------------|
--7--7--x--7-----7--7--7----|-------|--7-----------7-------------|
--7--7--x--7-----7--7--7----|-------|--5-----5--5--5-----5--5----|
--5--5--x--5-----5--5--5----|-------|----------------------------|


----------------------------|----------------------------|
----------------------------|----------------------------|
----------------------------|----------------------------|
--7--------7-----7--7--7----|--3-----------3-------------|
--5-----5--5-----5--5--5----|--1-----1--1--1-----1--1----|
----------------------------|----------------------------|


----------------------------|----------------------------|
----------------------------|----------------------------|
----------------------------|----------------------------|
--3--------3-----3--3--3----|--5-----------5-------------|
--1-----1--1-----1--1--1----|--5-----------5-------------|
----------------------------|--3-----3--3--3-----3--3----|


----------------------------|----------------------------|
----------------------------|----------------------------|
----------------------------|----------------------------|
--5--------5-----5--5--5----|--7-----------7-------------|
--5--------5-----5--5--5----|--7-----------7-------------|
--3-----3--3-----3--3--3----|--5-----5--5--5-----5--5----|


----------------------------|----------------------------|
----------------------------|----------------------------|
----------------------------|----------------------------|
--7--------7-----7--7--7----|--7-----------7-------------|
--7--------7-----7--7--7----|--5-----5--5--5-----5--5----|
--5-----5--5-----5--5--5----|----------------------------|


----------------------------|----------------------------|
----------------------------|----------------------------|
----------------------------|----------------------------|
--7--------7-----7--7--7----|--3-----------3-------------|
--5-----5--5-----5--5--5----|--1-----1--1--1-----1--1----|
----------------------------|----------------------------|


----------------------------|----------------------------|
----------------------------|----------------------------|
----------------------------|----------------------------|
--3--------3-----3--3--3----|--5-----------5-------------|
--1-----1--1-----1--1--1----|--5-----------5-------------|
----------------------------|--3-----6--3--3-----3--3----|


----------------------------|----------------------------|
----------------------------|----------------------------|
----------------------------|----------------------------|
--5--------5--------5-------|----------------------------|
--5--------5--------5-------|----------------------------|
--3--3--3--3--3--3--3-------|--5--5--5--5--5~------------|


----------------------------|----------------------------|----------|
----------------------------|----------------------------|----------|
----------------------------|----------------------------|----------|
--7.------------------------|--------------8-------------|--7--5----|
--4--------5.-------7.------|--5--5--5--5--6-------------|--5--3----|
-----------3--------5-------|----------------------------|----------|


----------------------------|----------|----------------------------|
----------------------------|----------|----------------------------|
----------------------------|----------|----------------------------|
--------------8-------------|--7-------|----------------------------|
--5--5--5--5--6-------------|--5--6----|--5--5--5--5--5.-5--5--5----|
----------------------------|-----4----|----------------------------|


----------------------------|----------------------------|
----------------------------|----------------------------|
----------------------------|----------------------------|
----------------------------|----------------------------|
--4.-4--4--4--4--4--4--4----|--5--5--5--5--5.-5--5--5----|
----------------------------|----------------------------|


----------------------------|----------------------------|
----------------------------|----------------------------|
----------------------------|----------------------------|
----------------------------|----------------------------|
--4.-4--4--4--4--4--4--4----|--5--5--5--5--5.-5--5--5----|
----------------------------|----------------------------|


----------------------------|----||
----------------------------|----||
----------------------------|----||
----------------------------|----||
--4.-4--4--4--4--4--4--4----|----||
----------------------------|----||
        
Comments

No comments yet