Gametabs
Home
Tabs
Random

Wet Hands

Average rating: 4.750

4 ratings

Composer:

Tabber:

Style:

Instrument:

Created: November 26, 2014 at 12:00 AM

            Wet Hands
Minecraft
C418
bravetiger1
Nov 23

Standard Tuning

|--------4-6-4---------6-9-6----------------4-6-4---------6-9-6---|
|------7-------7-----4-------7------------7-------7-----4-------7-|
|----4-----------7-5--------------------4-----------7-5-----------|
|--5----------------------------------5---------------------------| 2x



|----------2---------------2--------------------2---------------2-|
|--------4---4-----------4--------------------4---4-----------4---|
|----2-5-------5-2---2-5------------------2-5-------5-2---2-5-----|
|--3---------------3--------------------3---------------3---------|

|--------4-6-4-------------6--------------------------------------|
|------7-------7---------7----------------------------------------|
|----4-----------7---4-7------------------------------------------|
|--5---------------5----------------------------------------------|

|--------2-6---------------2-6-------------2----------------------|
|----0-4---------------0-4---------------4------------------------|
|--2-----------------2---------------2-5---------0----------------|
|----------------------------------3------------------------------|

|----------1---------------1-------|
|--------2---2-----------2---2-----|
|------2-------2-------2-------0---|
|--0-4-----------4-0-4-------------|

|----------2---------------6-4-----|
|--------4---4-----------7-----7---|
|----2-5-------5-2---4-7---------7-|
|--3---------------5---------------|

|----------1---------|
|--------2-----------|
|------2-------------|
|--0-4---------------|

Repeat until you drop out.
        
Comments

@patakie (March 23, 2019 at 7:47 PM)

im so happy this exists. thank you


@Choose a Username (August 21, 2019 at 9:40 PM)

10/10