Gametabs
Home
Tabs
Random

Mice on Venus

Average rating: 5.000

6 ratings

Composer:

Tabber:

Style:

Instrument:

Created: February 24, 2017 at 12:00 AM

            Mineraft-Piano 3-Ukulele-GCEA-By TheBlueSkine 

Enjoy ! ;)

A|-7------5----|--------|-3------0----|-7------5----|
E|-0-----------|-3------|-1-----------|-0-----------|
C|-0-----------|-0------|-0-----------|-0-----------|
G|-0-----------|-0------|-2-----------|-0-----------|

A|-3-----7-----|-3-----0-----|--------|-2------|
E|-5-----------|-1-----------|-3------|-3------|
C|-4-----------|-0-----------|-2------|-2------|
G|-0-----------|-2-----------|-0------|-0------|

A|-3------|-3------|-3-----0-----|-3------|-0-----3-----|
E|-0------|-0------|-0-----------|-1------|-1-----------|
C|-0------|-0------|-0-----------|-0------|-2-----------|
G|-2------|-1------|-0-----------|-2------|-2-----------|

A|-2-----------|--------|--------|-------------|-----------------|
E|-3-----3-----|-1------|-1------|-3-----0-----|-----------------|
C|-2-----------|-2------|-0------|-0-----------|-0-----2----0----|
G|-0-----------|-2------|-2------|-0-----------|-0---------------|

A|-----------------|-----------------|-------------|-------------|
E|-0-----1----3----|-0---------------|-0-----3-----|-3-----0-----|
C|-0---------------|-0-----2----0----|-0-----------|-0-----------|
G|-0---------------|-0---------------|-0-----------|-0-----------|

A|--------|-2------|
E|--------|-3------|
C|-2------|-2------|
G|-0------|-0------|
        
Comments

@thedstring (March 01, 2017 at 2:03 PM)

I like this! =)

And if you don't have a ukulele you can put a capo on fret 5 and play on the 5 highest sounding strings, like this:

Capo fret 5:

e|-7------5----|--------|-3------0----|-7------5----|
B|-0-----------|-3------|-1-----------|-0-----------|
G|-0-----------|-0------|-0-----------|-0-----------|
D|-0-----------|-0------|-2-----------|-0-----------|
A|-------------|--------|-------------|-------------|
E|-------------|--------|-------------|-------------|

And I would like to make a correction, it's early so I might be wrong, but the 5th measure

A|-3-----7-----|
E|-5-----------|
C|-4-----------|
G|-0-----------|

should be:

A|-3-----7-----|
E|-5-----------|
C|-4-----------|
G|-2-----------|