Gametabs
Home
Tabs
Random

Slava's Theme

Average rating: 5.000

1 ratings

Composer:

Tabber:

Style:

Instrument:

Created: September 01, 2011 at 12:00 AM

                                            Slava's Theme   
                         Heroes of Might & Magic VI                                
                             Paul Anthony Romero



     E  E  E  E  E  E     E  E  E  E  E  E     E  E  E  E  E  E   
E||--------3--------3--|--------3--------1--|--------3--------3--|
B||-----3--------3-----|-----3--------3-----|-----3--------3-----|
G||--3--------3--------|--3--------2--------|--3--------3--------|
D||--------------------|-----------0--------|--------------------|
A||--------------------|--------------------|--------------------|
E||--3-----------------|--3-----------------|--3-----------------|


  E  E  E  E  E  E     E   E    E   E  E  E     E   E    E   E  E  E   
--------3--------1--|--3---------------3-----|--6---------------6--3--|
-----3--------3-----|----------(3)--3-----3--|----------(6)--6--------|
--3--------2--------|-----(3)----------------|-----(5)----------------|
-----------0--------|------------------------|--3---------------------|
--------------------|------------------------|------------------------|
--3-----------------|--3---------------------|------------------------|


  E   E   E  E  E  E      E  E  E  E   E  E      E  E  E   E  E   E   
--8-------------8-----|--10-----------10-----|--11--------10--8--11--|
-------------8-----8--|------------8------8--|---------8-------------|
----------------------|---------0------------|------8----------------|
---------10-----------|------8---------------|-----------------------|
-----10---------------|----------------------|-----------------------|
--8-------------------|--10------------------|---8-------------------|


                                              ^             
   E  E  E  E  E   E     E  E  E  E  E  E     H.            
--10--------8--6--10--|--8--------6--5--3--|---------------|
---------6------------|--------6-----------|--6------------|
------7---------------|-----5--------------|--5------------|
----------------------|--3-----------------|--3------------|
----------------------|--------------------|---------------|
---6------------------|--------------------|---------------|


  ^                                         ^                  
  E  E  E  E  E  E     E  E  E  E  E  E     E  E  E  E  E  E   
--3-----------------|--------------------|--1-----------1-----|
--4-----------------|--4-----------4--1--|--1--------1-----1--|
--5-----------5-----|-----------3--------|--2-----2-----------|
-----5-----5-----5--|-----3--------------|-----3--------------|
--3-----3-----------|--1-----1-----------|--0-----------------|
--------------------|--------------------|--------------------|


                                ^           ^                  
  E  E  E  E  E  E     E  E  E  E  E  E     E  E  E  E  E  E   
--3-----------3-----|--4--------3--1--4--|--3--------1-----3--|
-----------1-----1--|-----------1--------|--4-----------4-----|
--------0-----------|--------------------|--3-----------------|
-----0--------------|--------3-----------|--1-----1-----------|
--------------------|-----3--------------|-----1--------------|
--3-----------------|--1-----------------|--------------------|


                       ^                                                  
  E  E  E  E  E  E     H.              H.              E  E  E  E  E  E   
--1-----------------|---------------|---------------|--4-----------------|
-----------4--3--1--|---------------|---------------|--------4-----4-----|
--------3-----------|--3------------|--L------------|-----5-----5-----5--|
-----3--------------|--3------------|---------------|--------------------|
--1-----------------|--1------------|---------------|--------------------|
--------------------|---------------|---------------|--4-----------------|


                                                            ^                  
  E  E  E  Q    S S    E  E  E  E  E  E     H.              E  E  E  E  E  E   
--8--L--L-------6-4-|--3-----------------|---------------|--4-----------------|
--------4--L--------|-----------------4--|---------------|--4-----------4-----|
-----5--------------|--------------5-----|--5------------|--5--------5-----5--|
--------------------|-----------5--------|---------------|--------6-----------|
--------------------|--3-----3-----------|---------------|-----6--------------|
--4-----------------|-----3--------------|---------------|--4-----------------|


  E  E  E  Q    S S    E  E  E  E  E  E     Q.     E  S S S S  
--8-------------6-4-|--3-----------------|--------------1-3---|
--------4--L--------|-----------------4--|------------4-----4-|
-----5--------------|-----------3--------|--3------L----------|
--------------------|--1-----1-----1-----|--------------------|
--------------------|-----1--------------|--------------------|
--4-----------------|--------------------|--------------------|


                         ^                                         
  E  E  E  E  S S S S    Q.     E  S S S S    E  E  E  E  S S S S  
--1-------------------|----------------1---|----------------------|
----------------4-3-1-|------------3-4---3-|--4-------------3-1---|
--------3-------------|--3------L----------|--------0-----------3-|
-----3-----3----------|--3------L----------|-----1-----1----------|
--1-----------1-------|--1------L----------|--3-----------3-------|
----------------------|--------------------|----------------------|


  ^                                                            
  Q.     E  S S S S    E  E  E  E  E  E     Q.     E  S S S S  
--------------------|--------------------|--3------L--L-------|
--1------L--1-3-4-1-|--3-----------0--3--|--------------1-0---|
--0------L----------|-----------0--------|------------------2-|
--------------------|--------0-----------|----------------1---|
--3------L----------|-----2--------------|--------------------|
--------------------|--3-----------------|--------------------|


                          NH                                      
  E  E  E  E  E  E        Q.     E  S S S S    E  E  E  E  E  E   
-----------------3--|-----------------5-3---|--3-----------------|
--0-----------3-----|--<>12------L--L-----6-|--0-----------0--3--|
-----------0--------|-------------------5---|-----------0--------|
--0-----0-----------|-----------------------|--------0-----------|
-----2--------------|-----------------------|-----2--------------|
--3-----------------|-----------------------|--3-----------------|


  Q      E  Q.       
-------<>3--L------||
--L----------------||
-------------------||
-------------------||
-------------------||
-------------------||




Duration Legend
---------------
W - whole
H - half
Q - quarter
E - 8th
S - 16th
T - 32nd
X - 64th
. - note dotted
|-n-|  - n-tuplets


Tablature Legend
----------------
L - tied note
x - dead note
g - grace note
(n) - ghost note
> - accentuded note
NH - natural harmonic
AH - artificial harmonic
TH - tapped harmonic
SH - semi harmonic
PH - pitch harmonic
h - hammer on
p - pull off
b - bend
br - bendRelease
pb - preBend
pbr - preBendRelease
brb - bendReleaseBend
\n/ - tremolo bar dip
\n - tremolo bar dive
-/n - tremolo bar Release up
/n\ - tremolo bar inverted dip
/n - tremolo bar return
-\n - tremolo bar Release down
S - shift slide
s - legato slide
/ -  slide into from below or out of upwards
\ -  slide into from above or out of downwards
~ - vibrato
W - wide vibrato
tr - trill
TP - tremolo picking
T - tapping
S - slap
P - pop
< - fade in
^ - brush up
v - brush down

        
Comments

No comments yet