Gametabs
Home
Tabs
Random

Moonlit Snow Journey

Average rating: 5.000

3 ratings

Composer:

Tabber:

Style:

Instrument:

Created: February 28, 2015 at 12:00 AM

                                 Moonlit Snow Journey (Guitar II)   
                            Might and Magic VI                      
                        Paul Romero and Rob King

Tune down 1 step



           NH                           NH                    NH       
     E     E   E   E  H           E     E   E   S   S  E.     E.   E   
D||----------------------------|----------------------17----------13--|
A||-----------10--11--L--------|---------------13h-15-----------------|
F||--0-------------------------|--0--------14--------------<>24-------|
C||-----<>12-------------------|-----<>12-----------------------------|
G||----------------------------|--------------------------------------|
D||----------------------------|--------------------------------------|


        NH    ^                                      NH       
  E     E  E  E  H           E  E  E   S   S  E.     E.   E   
-----------0--8--L--------|--------0---------17----------13--|
--------------6--L--------|-----------13h-15-----------------|
--------------------------|-----2-----------------<>24-------|
--0-----------------------|--0-------------------------------|
-----<>12-----------------|----------------------------------|
--------------------------|----------------------------------|


        NH      ^                    NH                    NH       
  E     E   E   E  H           E     E   E   S   S  E.     E.   E   
---------------13--L--------|----------------------17----------13--|
-----------10--11--L--------|---------------13h-15-----------------|
--0-------------------------|--0--------14--------------<>24-------|
-----<>12-------------------|-----<>12-----------------------------|
----------------------------|--------------------------------------|
----------------------------|--------------------------------------|


        NH    ^                    NH    ^                                      
  E     E  E  E  H           E     E  E  E  H             E  E  E  E  H         
-----------0--8--L--------|-----------0--8--L--------||------------1--L--------|
--------------6--L--------|--------------6--L--------||------------------------|
--------------------------|--------------------------||*--------2--3--L--------|
--0-----------------------|--0-----------------------||*-----0-----------------|
-----<>12-----------------|-----<>12-----------------||------------------------|
--------------------------|--------------------------||---3--------------------|


                      NH               ^            
  E  E  E  Q    E     Q       E  E  E  E  H         
-----------1----L----------|--------0--8--L--------|
---------------------------|-----------6--L--------|
--------2--3----L----------|-----2-----------------|
-----0-------------<>19----|-----------------------|
---------------------------|--5--------------------|
--3------------------------|-----------------------|


           ^          NH                  ^                       ^             
  E  E  E  E  Q       Q          E  E  E  E  H           E  E  E  E  Q    Q     
--------0--8--L----<>12-----||------------5--L--------|-----------5--L----1----|
-----------6--L-------------||------------3--L--------|-----------3--L---------|
-----2---------------------*||*--------5--------------|--------5---------------|
---------------------------*||*-----3-----------------|-----3------------------|
--5-------------------------||------------------------|------------------------|
----------------------------||---6--------------------|--6---------------------|


           ^                       ^                          ^            
  E  E  E  E  H           E  E  E  E  Q    Q         E  E  E  E  H         
-----------5--L--------|-----------5--L----3-----||-----------5--L--------|
-----------2--L--------|-----------2--L----------||-----------2--L--------|
--------4--------------|--------4---------------*||--------4--------------|
-----2-----------------|-----2------------------*||-----2-----------------|
--0--------------------|--0----------------------||--0--------------------|
-----------------------|-------------------------||-----------------------|


                                                NH               ^            
    E  E  E  E  H           E  E  E  Q    E     Q       E  E  E  E  H         
|------------1--L--------|-----------1----L----------|--------0--8--L--------|
|------------------------|---------------------------|-----------6--L--------|
|*--------2--3--L--------|--------2--3----L----------|-----2-----------------|
|*-----0-----------------|-----0-------------<>19----|-----------------------|
|------------------------|---------------------------|--5--------------------|
|---3--------------------|--3------------------------|-----------------------|


           ^          NH                  ^                       ^             
  E  E  E  E  Q       Q     4x   E  E  E  E  H           E  E  E  E  Q    Q     
--------0--8--L----<>12-----||------------5--L--------|-----------5--L----1----|
-----------6--L-------------||------------3--L--------|-----------3--L---------|
-----2---------------------*||*--------5--------------|--------5---------------|
---------------------------*||*-----3-----------------|-----3------------------|
--5-------------------------||------------------------|------------------------|
----------------------------||---6--------------------|--6---------------------|


           ^                       ^                          ^            
  E  E  E  E  H           E  E  E  E  Q    Q         E  E  E  E  H         
-----------5--L--------|-----------5--L----3-----||-----------5--L--------|
-----------2--L--------|-----------2--L----------||-----------2--L--------|
--------4--------------|--------4---------------*||--------4--------------|
-----2-----------------|-----2------------------*||-----2-----------------|
--0--------------------|--0----------------------||--0--------------------|
-----------------------|-------------------------||-----------------------|


           ^                       ^                       ^            
  E  E  E  E  H           E  E  E  E  H           E  E  E  E  H         
--------0--8--L--------|--------0--6--L--------|-----------5--L--------|
-----------6--L--------|-----------6--L--------|-----------3--L--------|
-----2-----------------|-----2-----------------|--------5--------------|
--0--------------------|--0--------------------|-----3-----------------|
-----------------------|-----------------------|-----------------------|
-----------------------|-----------------------|--6--------------------|


           ^                                                            
  E  E  E  E  H           E  E  E  E  H           E  E  E  E  H         
-----------5--L--------|-----------3--L--------|-----------1--L--------|
-----------3--L--------|-----------------------|-----------------------|
--------5--------------|--------2--3--L--------|--------2--3--L--------|
-----3-----------------|-----0-----------------|-----0-----------------|
-----------------------|-----------------------|-----------------------|
--6--------------------|--3--------------------|--3--------------------|


                                   ^                       ^            
  E  E  E  E  H           E  E  E  E  H           E  E  E  E  H         
-----------0--L--------|-----------5--L--------|--------0--8--L--------|
-----------2--L--------|--------0--------------|-----------6--L--------|
--------4--------------|-----------6--L--------|-----2-----------------|
-----2-----------------|-----------------------|--0--------------------|
--0--------------------|-----7-----------------|-----------------------|
-----------------------|--5--------------------|-----------------------|


           ^                        ^                       ^             
  E  E  E  E  Q    Q       E  E  E  E  H           E  E  E  E  Q    Q     
--------0--8--L----5----|-----------5--L--------|-----------5--L----1----|
-----------6--L---------|-----------3--L--------|-----------3--L---------|
-----2------------------|--------5--------------|--------5---------------|
--0---------------------|-----3-----------------|-----3------------------|
------------------------|-----------------------|------------------------|
------------------------|--6--------------------|--6---------------------|


  E  E  E  E  H           E  E  E  E  Q    Q       E  E  E  E  H         
-----------1--L--------|-----------3--L---------|-----------0--L--------|
-----------------------|-------------------3----|-----------2--L--------|
--------2--3--L--------|--------2--3--L---------|--------4--------------|
-----0-----------------|-----0------------------|-----2-----------------|
-----------------------|------------------------|--0--------------------|
--3--------------------|--3---------------------|-----------------------|


           ^                        ^                       ^            
  E  E  E  E  Q    Q       E  E  E  E  H           E  E  E  E  H         
-----------5--L----0----|--------0--8--L--------|--------0--8--L--------|
-----------2--L---------|-----------6--L--------|-----------6--L--------|
--------4---------------|-----2-----------------|-----2-----------------|
-----2------------------|--0--------------------|--0--------------------|
--0---------------------|-----------------------|-----------------------|
------------------------|-----------------------|-----------------------|


           ^          NH                          
  E  E  E  E  Q       Q        W                  
--------0--8--L----<>12----|---L----------------||
-----------6--L------------|--------------------||
-----2---------------------|--------------------||
--0------------------------|--------------------||
---------------------------|--------------------||
---------------------------|--------------------||
        
Comments

No comments yet