Gametabs
Home
Tabs
Random

Title Screen

Average rating: No ratings

Composer:

Tabber:

Style:

Instrument:

Created: November 11, 2007 at 12:00 AM

            
                                 Game: Metroid
                              Stage: Intro - Bass
                    Tabbed by: Jonatan Sandberg Forsgren

                                   NOTE!!! 
         Sometimes you must ignore the timing! Just listen to the song!

CONTACT:

www.myspace.com/iceclimbersrocks

[email protected]

G----|---------17--16--15------17--15-----|-----5--4--3-----5--3----|---------
D--7-|-x16-----------------16----------17-|--------------4--------5-|-x2------
A----|-----17-----------------------------|--5----------------------|---------
E----|------------------------------------|-------------------------|---------
                                                                              

G------7-------7-------5-------5-------8-------8-------9-------9------9------9
D----7-------7-----------------------8-------8-------9-------9------9------9--
A-5-------5----------8-------8----6-------6-------7-------7-------7------7----
E-----------------6-------6---------------------------------------------------

        
Comments

No comments yet