Gametabs
Home
Tabs
Random

Norfair

Average rating: No ratings

Composer:

Tabber:

Style:

Instrument:

Created: November 12, 2011 at 12:00 AM

            Guitar 1

E -----------/---------------/-----------
B -----------/---------------/-----------
G -----3-----/-5-7-10-9-7----/-----------
D -5-3---5-3-/------------7--/-----------
A -----------/---------------/-7-9-5-7-3-
E -----------/---------------/-----------

Guitar 2

E -----------/---------------/---------------------------------
B -----------/---------------/---------------------------------
G -----------/---------------/---------------------------------
D -----4-----/-5-7-10--------/-2-----2-4-0-----0-2-------------
A -6-4---6-4-/--------7-5-7--/---0-2---------0-----3-0-1-3-1-0-
E -----------/---------------/-------------3-------------------

Bass

G ---------------/-----------------------/-----------
D ---5-7---3-----/-----------------------/-----------
A -5-----3---5-3-/---3-5---5-7---5-8-3---/-5-7-3-5-1-
E ---------------/-1-----3-----6-------5-/-----------


* Some of the bass notes should be an octave lower



Guitar 1

E --------------------
B --------------------
G ---------3---------- x3
D --5--3-----5--3-----
A --------------------
E --------------------

E ---------------------------
B ---------------------------
G --5--7--10--9--7----------- x2
D ----------------------7----
A ---------------------------
E ---------------------------

E --------------------
B --------------------
G -------------------- x2
D --------------------
A --7--9--5--7--3-----
E --------------------

Guitar 2

E ------------------
B ------------------
G ------------------ x3
D -------4----------
A --6--4----6--4----
E ------------------

E -------------------------------
B -------------------------------
G ------------------------------- x2
D ------5--7--10-----------------
A --------------------7--5--7----
E -------------------------------

E ------------------------------------------------------------
B ------------------------------------------------------------
G ------------------------------------------------------------ x2
D --2---------2--4--0--------0--2-----------------------------
A ------0--2-----------------0--------3--0--1--3--1--0--------
E ------------------------3-----------------------------------

Bass

G ------------------------
D -----5--7-----3--------- x3
A --5---------3-----5--3--
E ------------------------



G ------------------------------------------
D ------------------------------------------ x2
A ------3--5------5--7-----5--8--3----------
E --1---------3---------6-------------5-----


G ---------------------
D --------------------- x2
A --5--7--3--5--1------
E ---------------------


* Some of the bass notes should be an octave lower
        
Comments

No comments yet