Gametabs
Home
Tabs
Random

Norfair

Average rating: 4.000

3 ratings

Composer:

Tabber:

Style:

Instrument:

Created: October 29, 2007 at 12:00 AM

            Game: Metroid
Song: Norfair
Composed by: Hirokazu Tanaka Ex.
Tabbed by: Not So Great Juja (Paul Horses)

Key:
~ = vibrato
p = pull-off
h = hammer-on
/ = slide
pm = palm-mute
tr = tremolo picking

Any questions or comments -
please, E-mail me at: [email protected]


e|-------------------------------------|
B|-------------------------------------|
G|------------------3------------------|
D|-5--------3-------4--5-------3-------|
A|-6--------4----------6-------3-------|
E|-------------------------------------|  x3
 |                                     |
G|----12-14---------11-----------------|
D|-13-------11---------13------10------|
A|-------------------------------------|
E|-------------------------------------|


========================================


e|-------------------------------------|
B|-------------------------------------|
G|-5-------7-------10-----9p7----------|
D|-5-------7-------10-----9p7-7p5-7----|
A|----------------------------7p5-7----|
E|----------------------------------5--|  x2
 |                                     |
G|-------------------------------------|
D|---10-12----12-14----12-15--------7--|
A|-8-------10-------13--------0--------|
E|-------------------------------------|


==================================================


e|-----------------------------------------------|
B|-----------------------------------------------|
G|-2-----------4---0-----------2-----------------|
D|-2-----------4---0-----------2---3-------------|
A|---------------------------------3-------------|
E|-----------------------------------------------|  x2
 |                                               |
G|-------------11--------------9-----------------|
D|-14-------14-----12-------12----10-7-8-10-8-7--|
A|----12-14-----------10-12----------------------|
E|-----------------------------------------------|
        
Comments

@Mr. Sandman (January 04, 2009 at 9:29 PM)

the bassline is nice, but the rest sounds kinda off...


@Juja (January 04, 2009 at 11:52 PM)

I'm not positive, but I think that's essentially how it goes. I based it off of a midi, so it could be wrong on a few notes. I suppose it might go along with the bass a little better like this:

e|-------------------------------------|
B|-------------------------------------|
G|------------------3------------------|
D|-5--------3-------4--5-------3-------|
A|-6--------4----------6-------3-------|
E|-------------------------------------|  x3
|                                     |
G|----12-14---------11-----------------|
D|-13-------11---------13------10------|
A|-------------------------------------|
E|-------------------------------------|

Anyway, check out the song to check for yourself: http://www.youtube.com/watch?v=gjSvpbCcQ74