Gametabs
Home
Tabs
Random

Kraid's Lair

Average rating: 5.000

5 ratings

Composer:

Tabber:

Style:

Instrument:

Created: November 22, 2011 at 12:00 AM

            This tab was based on the original one by dclowd9901, which had a few inaccuracies, and the excellent video by Washi981:

http://www.youtube.com/watch?v=_5JjJ1gNdKM&feature=related   



Kraid's Lair
Metroid (NES)
Originally tabbed by dclowd9901, rearranged by Paladin
21/11/2011

Capo on 2nd fret, the notes are relative to capo

Intro

e--0------|--3---2--|--0----------------------------------------------------------------|
B--3---3--|--3---3--|--3---0------------------------------------------------------------|
G----0----|----2----|----2--------------------------------------------------------------|
D---------|--0------|--0----------------------------------------------------------------|
A--3------|---------|-------------------------------------------------------------------|
E---------|---------|-------------------------------------------------------------------|

  4x            3x 

Verse                                   |Check rhythm|

e-0-----5-----2------------|-3-----0-----2-----5---2------------------------------------|
B-----0-----1-----3-0------|-0---3-----0-3---3-3----------------------------------------|
G-----------------------3--|---0---0-0-----2-----2--------------------------------------|
D---2-----2-----2-----2----|-------------0-----0----------------------------------------|
A--------------------------|-3-----3----------------------------------------------------|
E-0-----0-----0-----0------|------------------------------------------------------------|

  4x                                  3x
 
Bridge x4

e---------------------------------------------------------------------------------------|
B--8---8---8--11----11----11--10----10----10--10----------12----------------------------|
G------------------------------------------------11----11-------------------------------|
D----9---9-------11----11--------10----10-----------13----------------------------------|
A----------7--------------9---------------8---------------------------------------------|
E--0----------0---------------0---------------0-----------------------------------------|

Chorus x2

e--------------2-----------5-2-----------------0----------------------------------------|
B--------0-3-0---3-------------3-------------3------------------------------------------|
G----0-2-----------2-0-----------2-0-----0-2--------------------------------------------|
D--4-------------------4-0-----------4--------------------------------------------------|
A----------2---3-------2---2-----------2-------0----------------------------------------|
E--0-------------------------------2---3------------------------------------------------|

Post-Chorus

e--5-3-2-0-2-3-5-3-2-0-2-3-5---3---2---0---2---3---5---3---2---0---2---3----------------|
B--------------------------0---0---0---0---0---0---0---0---0---0---0---0----------------|
G----------------------------0---0---0---0---0---0---0---0---0---0---0------------------|
D---------------------------------------------------------------------------------------|
A---------------------------------------------------------------------------------------|
E--0-----0-----0-----0-----0-----------0-----------0-----------0------------------------|
        
Comments

@karathrow (November 29, 2011 at 1:24 AM)

on the post chorus in the video hes sliding into 5 and then does 3h5p3 before going to 2 on the high e string.

Not sure that it matters that much or that anyone cares, just thought I'd throw it out there.

EDIT: The stuff I mention happens in the second time he does the post chorus, the first time he does it he does the hammer on/pull off part before the slide.

Again you an do what you want its not the end of the world...just thought Id bring it up anyway.

DOUBLE EDIT ACROSS THE SKY: Yeah playing a few times with the recording it's apparent a lot of notes are missing. I dont know if you dismissed them as flourishes or personal touches but theres definitely stuff missing. Still a great tab but needs corrections, will try to pinpoint them when I get a chance.