Gametabs
Home
Tabs
Random

Noxus Battle

Average rating: No ratings

Composer:

Tabber:

Style:

Instrument:

Created: February 16, 2012 at 12:00 AM

            Soundtrack: Noxus Battle Theme
Game: Metroid Prime Hunters
Composer: Lawrence Schwedler & James Phillipsen
Tabber: TraceTheKriken
Date: 15th February 2012

This is Noxus's theme "layer" from Hunter Battle Theme. If you have played the game you propably have noticed that every hunter's theme has same base with their own "layer" just played on top of it, and when there are two hunter in the same room both of their "layers" will be played at once (For an example: First encounter with Noxus and Trace)

BPM: 140

e||----------------|----------------|----------------|----------------|
B||6---6---6-------|----------------|6---6---6/4-----|----------------|
G||4---4---4-------|----------------|4---4---4/2-----|----------------|
D||----------------|----------------|----------------|----------------|
A||----------------|----------------|----------------|----------------|
E||----------------|----------------|----------------|----------------|\
                                                                        > Play 3x
e||1---------------|----------------|----------------|----------------|/
B||------4-----2---|1-----2---------|1---------------|----------------|
G||1---------------|0-----------3---|----------------|----------------|
D||----------------|----------------|----------------|----------------|
A||----------------|----------------|----------------|----------------|
E||----------------|----------------|----------------|----------------|

e||----------------|----------------|----------------|----------------|
B||6---6---6-------|----------------|6---6---6/4-----|----------------|
G||3---3---3-------|----------------|3---3---3/1-----|----------------|
D||----------------|----------------|----------------|----------------|
A||----------------|----------------|----------------|----------------|
E||----------------|----------------|----------------|----------------|

e||1---------------|----------------|----------------|----------------|
B||------4-----2---|1-----2---------|1---------------|----------------|
G||1---------------|0-----------3---|----------------|----------------|
D||----------------|----------------|----------------|----------------|
A||----------------|----------------|----------------|----------------|
E||----------------|----------------|----------------|----------------|

e||----------------|----------------|----------------|----------------|
B||----4---4---4---|----4---4---4---|----4-------4---|----4---4---4---|
G||----4---6---7---|----4---6---7---|----4-------4---|----4---6---7---|
D||----------------|----------------|----------------|----------------|
A||----------------|----------------|----------------|----------------|
E||----------------|----------------|----------------|----------------|

e||----------------|----------------|----------------|----------------|
B||----0-------2---|------------3---|--------4-------|6---------------|
G||----------------|----------------|----------------|----------------|
D||----------------|----------------|----------------|----------------|
A||----------------|----------------|----------------|----------------|
E||----------------|----------------|----------------|----------------|

e||----------------|----------------|----------------|----------------|
B||6---6---6-------|----------------|6---6---6/4-----|----------------|
G||4---4---4-------|----------------|4---4---4/2-----|----------------|
D||----------------|----------------|----------------|----------------|
A||----------------|----------------|----------------|----------------|
E||----------------|----------------|----------------|----------------|

e||1---------------|----------------|----------------|----------------|
B||------4-----2---|1-----2---------|1---------------|----------------|
G||1---------------|0-----------3---|----------------|----------------|
D||----------------|----------------|----------------|----------------|
A||----------------|----------------|----------------|----------------|
E||----------------|----------------|----------------|----------------|

Here starts the part you hear the Dun Dun Drum things

e||----------------|----------------|----------------|----------------|
B||----4---4---4---|----4---4---4---|----4-------4---|----4---4---4---|
G||----4---6---7---|----4---6---7---|----4-------4---|----4---6---7---|
D||----------------|----------------|----------------|----------------|
A||----------------|----------------|----------------|----------------|
E||----------------|----------------|----------------|----------------|

e||----------------|----------------|----------------|----------------|
B||----0-------2---|------------3---|--------4-------|6---------------|
G||----------------|----------------|----------------|----------------|
D||----------------|----------------|----------------|----------------|
A||----------------|----------------|----------------|----------------|
E||----------------|----------------|----------------|----------------|

e||----------------|----------------|----------------|----------------|
B||6---6---6-------|----------------|6---6---6/4-----|----------------|
G||3---3---3-------|----------------|3---3---3/1-----|----------------|
D||----------------|----------------|----------------|----------------|
A||----------------|----------------|----------------|----------------|
E||----------------|----------------|----------------|----------------|

e||1---------------|----------------|----------------|----------------|
B||------4-----2---|1-----2---------|1---------------|----------------|
G||1---------------|0-----------3---|----------------|----------------|
D||----------------|----------------|----------------|----------------|
A||----------------|----------------|----------------|----------------|
E||----------------|----------------|----------------|----------------|

e||----------------|----------------|----------------|----------------|
B||----------------|----------------|----------------|----------------|
G||4---4-----------|----3-----------|4---4-----------|3-------1-------|
D||3---3-----------|----3-----------|3---3-----------|3---------------|
A||----------------|----------------|----------------|----------------|
E||----------------|----------------|----------------|----------------|

e||----------------|----------------|----------------|----------------|
B||----------------|----------------|----------------|----------------|
G||4---4-----------|----3-----------|4---4-----------|6-------4-------|
D||3---3-----------|----3-----------|3---3-----------|----------------|
A||----------------|----------------|----------------|8---------------|
E||----------------|----------------|----------------|----------------|

e||----------------|----------------|----------------|----------------|
B||----------------|----------------|----------------|----------------|
G||4---4-----------|----3-----------|4---4-----------|3-------1-------|
D||3---3-----------|----3-----------|3---3-----------|3---------------|
A||----------------|----------------|----------------|----------------|
E||----------------|----------------|----------------|----------------|

e||----------------|----------------|----------------|----------------|
B||----------------|----------------|----------------|----------------|
G||----------------|6---6-----------|7---7-----------|8---8---9---9---|
D||9---9-----------|9---9-----------|9---9-----------|9---9---9---9---|
A||8---8-----------|8---8-----------|8---8-----------|8---8---8---8---|
E||----------------|----------------|----------------|----------------|

And ends here

e||----------------|----------------|----------------|----------------|
B||6---6---6-------|----------------|6---6---6/4-----|----------------|
G||4---4---4-------|----------------|4---4---4/2-----|----------------|
D||----------------|----------------|----------------|----------------|
A||----------------|----------------|----------------|----------------|
E||----------------|----------------|----------------|----------------|\
                                                                        > Play 2x
e||1---------------|----------------|----------------|----------------|/
B||------4-----2---|1-----2---------|1---------------|----------------|
G||1---------------|0-----------3---|----------------|----------------|
D||----------------|----------------|----------------|----------------|
A||----------------|----------------|----------------|----------------|
E||----------------|----------------|----------------|----------------|

e||----------------|
B||----------------|
G||----------------|
D||----------------|
A||----------------|
E||----------------| 16x Break

e||----------------|----------------|----------------|----------------|
B||6---6---6-------|----------------|6---6---6/4-----|----------------|
G||4---4---4-------|----------------|4---4---4/2-----|----------------|
D||----------------|----------------|----------------|----------------|
A||----------------|----------------|----------------|----------------|
E||----------------|----------------|----------------|----------------|

e||1---------------|----------------|----------------|----------------|
B||------4-----2---|1-----2---------|1---------------|----------------|
G||1---------------|0-----------3---|----------------|----------------|
D||----------------|----------------|----------------|----------------|
A||----------------|----------------|----------------|----------------|
E||----------------|----------------|----------------|----------------|

Dun Dun part starts again

e||----------------|----------------|----------------|----------------|
B||----------------|----------------|----------------|----------------|
G||4---4-----------|----3-----------|4---4-----------|3-------1-------|
D||3---3-----------|----3-----------|3---3-----------|3---------------|
A||----------------|----------------|----------------|----------------|
E||----------------|----------------|----------------|----------------|

e||----------------|----------------|----------------|----------------|
B||----------------|----------------|----------------|----------------|
G||4---4-----------|----3-----------|4---4-----------|6-------4-------|
D||3---3-----------|----3-----------|3---3-----------|----------------|
A||----------------|----------------|----------------|8---------------|
E||----------------|----------------|----------------|----------------|

e||----------------|----------------|----------------|----------------|
B||----------------|----------------|----------------|----------------|
G||4---4-----------|----3-----------|4---4-----------|3-------1-------|
D||3---3-----------|----3-----------|3---3-----------|3---------------|
A||----------------|----------------|----------------|----------------|
E||----------------|----------------|----------------|----------------|

e||----------------|----------------|----------------|----------------|
B||----------------|----------------|----------------|----------------|
G||----------------|6---6-----------|7---7-----------|8---8---9---9---|
D||9---9-----------|9---9-----------|9---9-----------|9---9---9---9---|
A||8---8-----------|8---8-----------|8---8-----------|8---8---8---8---|
E||----------------|----------------|----------------|----------------|

And ends here

Repeat
        
Comments

No comments yet