Gametabs
Home
Tabs
Random

Main Menu

Average rating: No ratings

Composer:

Tabber:

Style:

Instrument:

Created: August 03, 2009 at 12:00 AM

            game:metroid prime 3 corruption
system:wii
composer:kenji yamamoto
song: main menu 

e-19--17--15-17-19------12-14-15---17-15----------------
B----------------------------------------15-------------
G-------------------------------------------------------
D-------------------------------------------------------
A-------------------------------------------------------
E-------------------------------------------------------

e-17---15-14-15--17---22----23-----12--14-15------------
B-------------------------------------------------------
G-------------------------------------------------------
D-------------------------------------------------------
A-------------------------------------------------------
E-------------------------------------------------------

e--17-15----14-12-----12--14-15----17-15--14-12---------
B------------------------------------------------15-17~-
G-------------------------------------------------------
D-------------------------------------------------------
A-------------------------------------------------------
E-------------------------------------------------------

e-23------------------23--------------------------------
B-------17---15-17~----------17~------------------------
G-------------------------------------------------------
D-------------------------------------------------------
A-------------------------------------------------------
E-------------------------------------------------------

explanation
~ hold note

if u want me to put an improve solo for the last 20 seconds that u don't play on the sound track pm me this is my first tab 

        
Comments

No comments yet