Gametabs
Home
Tabs
Random

Torvus Bog

Average rating: 4.000

2 ratings

Composer:

Tabber:

Style:

Instrument:

Created: March 01, 2009 at 12:00 AM

            Game: Metroid Prime 2: Echoes
Song: Torvus Bog
Composed by: Kenji Yamamoto
Tabbed by: Not So Great Juja (Paul Horses)

Key:
~ = vibrato
p = pull-off
h = hammer-on
b = bend
/ = slide
pm = palm-mute
tr = tremolo picking



This part plays mutliple times.


e|----------15----------15-----------15----------15-|
B|-------11----------11-----------11----------11----|
G|-12-14-------12-14--------12-14-------12-14-------|
D|--------------------------------------------------|
A|--------------------------------------------------|
E|--------------------------------------------------|


=====================================================


You'll have to actually drop the D string to C for
this part. It's odd, but that's how I was able to
play it fast enough.


e|-------------------------------------|
B|-------------------------------------|
G|-0h12p0-10p0-8p0-7p0-5p0-7p0-5p0-7p0-|
C|-------------------------------------|
A|-------------------------------------|
E|-------------------------------------|


e|------------------------------------|
B|------------------------------------|
G|------------------------------------|
C|-0h10p0-8p0-7p0-5p0-3p0-2p0-3p0-5p0-|
A|------------------------------------|
E|------------------------------------|



e|---------------------------------|
B|---------------------------------|
G|---------------------------------|
C|-3p0-2p0-3p0-5p0-3p0-2p0-3p0-5p0-| x5? (I'm not sure)
A|---------------------------------|
E|---------------------------------|


===================================================================


e|-----------------------------------------15------------------|
B|-15--13-15--13-15-------15--13-15--13-15----15---------------|
G|------------------12~---------------------------15----12-----|
D|-------------------------------------------------------------| x2
A|-------------------------------------------------------------|
E|-------------------------------------------------------------|



e|-18--17-18--17-18-------18--17-18--17-18--17-18--------------|
B|------------------15~----------------------------15~---------|
G|-------------------------------------------------------------|
D|-------------------------------------------------------------| x2
A|-------------------------------------------------------------|
E|-------------------------------------------------------------|


====================================================================


e|-----15------------------------------------------|
B|-13------16~-------15--16---------13-------------|
G|---------------------------15-15------12~--------|
D|-------------------------------------------------|
A|-------------------------------------------------|
E|-------------------------------------------------|


e|-----15---------------------------18--15~--------|
B|-13------16~-------15--16--18-18-----------------|
G|-------------------------------------------------|
D|-------------------------------------------------|
A|-------------------------------------------------|
E|-------------------------------------------------|


Well, that should be most of what you'd probably play on guitar.
        
Comments

No comments yet