Gametabs
Home
Tabs
Random

Sector 4 (AQA) Underwater Theme

Average rating: 5.000

1 ratings

Composer:

Tabber:

Style:

Instrument:

Created: October 11, 2008 at 12:00 AM

                    Metroid Fusion - Sector 4 (AQA) Underwater Area GUITAR TAB
                   Song by Minako Hamano & Akira Fujiwara

                   Tabbed by auriplane ([email protected])


This song is about 60bpm.  I transposed the arpeggios by 1-2 octaves to 
keep them in a reasonable range (they're 4 octaves in the original), and
I also moved everything down one fret, so use a capo if you want to play 
along with the original.


    Intro

e |------------3-----------------------|
B |1-----------------------------------|
G |------------------------------------|
D |------------------------------------|
A |------------------------------------|
E |------------------------------------|
                                                                           
e |------------4-----------------------|------0---------------0---4---------|
B |------------------0---1-----------0-|--1-----------0---1-----------------|
G |--------------1---------------1-----|----------1-------------------------|
D |----------2---------------2---------|------------------------------------|
A |2-----3-----------------------------|------------------------------------|
E |0-----------------------------------|0-----------------------------------|

    Section I (0:09)

e |------------------------------------|8---------4---------------4---------|
B |------------0-----------------------|------5-----------0---1-------0---1-|
G |------------1-----------------------|5-----------------------------------|
D |------------------------------------|--------------2---------------------|
A |------2-----------------------------|------------------------------------|
E |0-----------------------------------|0-----------------------------------|
                                                                         
e |------------------------------------|---------------------------0--4--7--|
B |------------0-----------------------|---------------------0--1-----------|
G |--2---------1-----------------------|------------------1-----------------|
D |------------------------------------|---------------2--------------------|
A |------2-----------------------------|---------2--3-----------------------|
E |0-----------------------------------|0-----4--0--------------------------|

e |8--7--4--0--------------------------|------------------------2--5---7----|
B |------------1--0--------------------|------------------0--4--------------|
G |------------------1-----------------|---------------2--------------------|
D |---------------------2--------------|---------1--4-----------------------|
A |0-----------------------3--2--------|---0--2--0--------------------------|
E |--------------------------------0---|2-----------------------------------|

e |8--7--4--0--------------------------|------------------------------------|
B |------------1--0--------------------|------------------------------------|
G |------------------1-----------------|------------------------------------|
D |---------------------2--------------|------1--4--------------------------|
A |0-----------------------3--2--------|0--2-----0--------------------------|
E |------------------------------0--2--|------------------------------------|

0:33
e |4-----------------------------------|7-----------------------------------|
B |5-----------------------------------|-------7-----4-----0----------------|
G |2-----------------------------------|----4-------------------------------|
D |------------------------------------|----------4---------------4---------|
A |0-----------------------------------|----------------6-----2-------0-----|
E |------------------------------------|-----------------------------2------|

e |4-----------------------------------|3-----------------------------------|
B |5-----------------------------------|5-----------------------------------|
G |2-----------------------------------|2-----------------------------------|
D |------------------------------------|------------------------------------|
A |0-----------------------------------|------------------------------0-----|
E |------------------------------------|------------------------------------|

e |------------------------------------|
B |------------------------------------|
G |------------------------------------|
D |------------------------------------|
A |0-----------------------------------|
E |------------------------------------|

    Section II  (0:48)

e |------------------|------------------|------------------|------------------|
B |5-----4-----------|------------------|------------------|------------------|
G |---------------4--|5-----------0-----|2-----------------|------------------|
D |------------------|------------------|------0--------2--|------------------|
A |0-----------------|------------------|------------------|0-----------------|
E |------------------|3-----------------|1-----------------|------------3-----|

e |------------------|------------------|---0--------------|------------------|
B |5-----4-----------|------------------|------------------|------------------|
G |---------------4--|5-----------0-----|2-----------------|------------------|
D |------------------|------------------|------------------|------------------|
A |0-----------------|------------------|------------------|------------------|
E |------------------|3-----------------|1-----------------|------------3-----|

e |------------------|------------------|------------------|------------------|
B |---------1--------|0-----------------|------------------|------------------|
G |---2--0-----------|------2-----------|------------------|------------------|
D |2-----------------|---2-----0-----2--|------------------|------------------|
A |0-----------------|------------------|0-----------------|------------------|
E |------------------|3-----------------|1-----------------|------------3-----|

e |------------------|------------------|0-----------------|------------------|
B |---------3-----1--|---0-----------3--|------------------|------------------|
G |---2--0-----------|------0--2--------|------------------|------------------|
D |2-----------------|------------------|------------------|------------------|
A |0-----------------|------------------|------------------|------------------|
E |------------------|3-----------------|1-----------------|------------3-----|

    Section II  (1:36)

e |------------------|------------------|------------------|------------------|
B |5-----4-----------|------------------|------------------|------------------|
G |---------------4--|5-----------0-----|2-----------------|------------------|
D |------------------|------------------|------0--------2--|------------------|
A |0-----------------|------------------|------------------|0-----------------|
E |------------------|3-----------------|1-----------------|------------3-----|

e |------------------|------------------|---0--------------|------------------|
B |5-----4-----------|------------------|------------------|------------------|
G |---------------4--|5-----------0-----|2-----------------|------------------|
D |------------------|------------------|------------------|------------------|
A |0-----------------|------------------|------------------|------------------|
E |------------------|3-----------------|1-----------------|------------3-----|

e |------------------|------------------|------------------|------------------|
B |------------------|------------------|------------------|------------------|
G |------2-----------|-----4------------|2-----------------|1-----------------|
D |------------------|------------------|------------------|------------------|
A |0-----------------|------------------|------------------|------------------|
E |------------------|3-----------------|1-----------------|------------3-----|

e |------0-----------|3-----------------|------------------|------------------|
B |------------------|------------1-----|------------------|------------------|
G |0-----------------|0-----------------|2-----------------|1-----------------|
D |------------------|------------------|------------------|------------------|
A |0-----------------|------------------|------------------|------------------|
E |------------------|3-----------------|1-----------------|------------------|
    

        
Comments

No comments yet