Gametabs
Home
Tabs
Random

Kiss in the Dark

Average rating: No ratings

Composer:

Tabber:

Style:

Instrument:

Created: December 15, 2011 at 12:00 AM

            X\ - pick slide
tr - trill
\w/ - whammy dip
\w - whammy bar down
hb - half bend
h - hammer on
p - pull off
/ - slide



e|---------
B|---------
G|---------
D|---------
A|-X\\\----
E|-X\\\----

  ----------------------------
  ----------------------------
  -7---5---4--------7--5--7--4 x4
  -5---3---2--------5--3--5--2
  ----------------------------
  ----------------------------
  
  (0:25) * Trill while going down on the whammy bar
  ---------
  -8tr11---
  ---------
  ---------
  ---------
  ---------
  
  (0:29)
  ------------------------------------------------------6
  ---------------------------------------------/6--5--5--
  ----------------------3--5--3--5hb-5p3-----------------
  -----------\5w----5---------------------5--------------
  -------------------------------------------------------
  -\3w/--------------------------------------------------

  ------------
  ------------
  -7---5---4--
  -5---3---2--
  ------------
  ------------
  
  (0:40)
  18p15----15h18p15h20p15----15h18p15h20p15----15h18p15h20p15----15h18p15h20p15---15h20-/20
  ------18----------------18----------------18----------------18----------------18---------
  -----------------------------------------------------------------------------------------
  -----------------------------------------------------------------------------------------
  -----------------------------------------------------------------------------------------
  -----------------------------------------------------------------------------------------

  ------------
  ------------
  -7---5---4--
  -5---3---2--
  ------------
  ------------
  
  (0:46) * Just strum fast 
  ---------------------------------------------------------------------------------------
  ---------------------------------------------------------------------------------------
  -12-0-0-7-0-0-12-0-0-14-0-0-15-0-0-12-0-0-14-0-0-15-0-0-17-0-0-14-0-0-15-0-0-17-0-0-19~
  ---------------------------------------------------------------------------------------
  ---------------------------------------------------------------------------------------
  ---------------------------------------------------------------------------------------

  ----------------------------
  ----------------------------
  -7---5---4--------7--5--7--4 
  -5---3---2--------5--3--5--2
  ----------------------------
  ----------------------------
        
Comments

No comments yet