Gametabs
Home
Tabs
Random

Jungle

Average rating: No ratings

Composer:

Tabber:

Style:

Instrument:

Created: November 08, 2007 at 12:00 AM

                                             Game: Metalgear
                              Stage: Jungle - Bass
                    Tabbed by: Jonatan Sandberg Forsgren

                                   NOTE!!! 
         Sometimes you must ignore the timing! Just listen to the song!


CONTACT:

www.myspace.com/iceclimbersrocks

[email protected]

G-----------------------------------------------------|-----------------12----
D---------------------------------------0--0--0-0-3-4-|-x2--------------------
A-------5--5-------5--5-------5--5--------------------|----10--8-10-10-----10-
E-3-3--------3-3--------3-3--------3-3----------------|-----------------------
       Intro                                                                  


G--------12--------12----|------------------12------------------|-------------
D------------------------|------------------------0--0--0-0-----|-------------
A-10--10----10--10----10-|-x3--10--8-10-10-----10-----------8-9-|-10--8-10-10-
E------------------------|--------------------------------------|-------------
                                                                              


G-12-----------12--------12----|----------------------------------------------
D------------------------------|----0--0--0-4-7-0-----8--7-8------11--10-11---
A----10-10--10----10--10----10-|-x3-------------------------------------------
E------------------------------|------------------6-6---------9-9-------------
                                                                              


G----------------------------9---------------10---------------|--------12-----
D-----4--3-4-----9--7-9----------9----------------10----------|---------------
A------------------------7-7---------7--8-8------------8------|-10--10----10--
E-2-2--------7-7------------------------------------------3-3-|---------------
                                                                              


G-------------------8----8-------10----10-|---------------12------------------
D-------12--------------------------------|----------------------------12-----
A-10-10----10--6--6---6-----8--8----8-----|--------10--10----10--10-10----10--
E-----------------------------------------|--3-3------------------------------



G------878--------10910-------------------------------------------------------
D----------8------------10----------------------------------------------------
A-6-6---------8-8-------------------------------------------------------------
E-----------------------------------------------------------------------------

        
Comments

No comments yet