Gametabs
Home
Tabs
Random

Jungle

Average rating: No ratings

Composer:

Tabber:

Style:

Instrument:

Created: November 08, 2007 at 12:00 AM

                                            Game: Metalgear
                           Stage: Jungle - Lead Guitar
                           Tabbed by: Mario and Luigi
                          
                                   NOTE!!!
         Sometimes you must ignore the timing! Just listen to the song!

CONTACT:

www.myspace.com/iceclimbersrocks

[email protected]


e------------------------------------------------------------|-----------------
B------------------------------------------------------------|-----------------
G------7------------6-----------5------------4---------------|-----------------
D-------------------------------------------------------3-4--|-----------------
A---------5-5----------5-5---------5-5----------5-5-5-5------|-x2--------------
E-3-3----------3-3---------3-3----------3-3------------------|-----------------
                                                                              

e------------------------------------------------------------------------------
B------------------------------------------------------------------------------
G-7--7-----7--7--6----9---7-6-5--------5-8--8-6--------------------------------
D------5-----------7-----------------6----------8-----------3-4----------------
A---------------------------------6-----------------5-5-5-5--------------------
E------------------------------------------------------------------------------
                                                                              

e------------------------------------------------------------------------------
B--------------------------------------------6--6-6----------------------------
G-------7-------6-6-6----9--7-6-5-------5-8---------8-5---8-7------------------
D-5-5-5----8-8---------7--------------6-----------------6----------------------
A----------------------------------6-------------------------------------------
E------------------------------------------------------------------------------
                                                                              

e------------------------------------4--------------------2---4vvvv------------
B-------------------------6--------6-----------2--------4----------------------
G-----------------------7--------6-----------3--------4-------------5vvvv------
D--------4-7----------8--------6-----------4--------4--------------------------
A-5-5--5-----5------8-------4------------4-------2-----------------------------
E----------------6---------------------2---------------------------------------
                                                                              

e----------------------------------------------------------------6-------------
B---------------------------------------------------------8--10----------------
G-7---------------------------7-----------5------------7------------8----------
D----5--7--8------5-----5-7------5--7--8-----8--7------------------------------
A-------------6------8----------------------------8----------------------------
E------------------------------------------------------------------------------
                                                                              

e-------5-----------6----------------------------------------------------------
B-8-6-8------8--10---------------8-------------10------------------------------
G---------7--------------------8------------10---------------------------------
D--------------------------5-8---------7-10------------------------------------
A---------------------6-6----------8-8-----------------------------------------
E------------------------------------------------------------------------------

                                Game: Metalgear
                           Stage: Jungle - Lead Guitar
                    Tabbed by: Erik Lundmark, Nicklas Engberg
                          
                                   NOTE!!!
         Sometimes you must ignore the timing! Just listen to the song!

CONTACT:

www.myspace.com/iceclimbersrocks

[email protected]


e-----6----------5---------4---------3---------------|-------------------------
B----------------------------------------------------|-------------------------
G----------------------------------------------------|-------------------------
D-5-5--------5-5-------5-5-------5-5-------------3-4-|-------------------------
A---------5-5-------5-5-------5-5-------5--5--5-5----|x2-----------------------
E----------------------------------------------------|-------------------------
                                                                              

e------------------------------------------------------------------------------
B------------------------------------------------------------------------------
G---------7-7-----6----------------5-5----------------3------------------------
D-8--8-------7-7-----8--7-6------6----6-----------5---------------4-5----------
A-----5---------7--------------6------------5---5---5---5--5--5-5--------------
E----------------------------8----------3-6---6--------------------------------
                                                                              

e------------------------------------------------------------------------------
B------------------------------------------------------------------------------
G-----------------------6-----------5-7-77-5-----5-----------------------------
D-5--5-5-8--8-88-7-77-----8-7-6---6----------6-----8---------4-7---------------
A---------------------7----------6-6-----------6-------5-5-5-----5-------------
E------------------------------------------------------------------------------
                                                                              

e-----------------------9-----------9--------11--------------------------------
B-----------6---------9----------11-------12----9----9-------------------------
G---------7--------10---------11-------11------------------5-------------------
D-------8-------11---------11--------------------------------7-7---------------
A-----8------------------------------------------------------------------------
E-6----------------------------------------------------------------------------
                                                                              

e------------------------------------------------------------------------------
B-11--------11---------------------11--------11--------------------------------
G-----12-14------------------10--------12-14----14--12-10----------------------
D------------------13-10--13------------------------------12-------------------
A--------------13--------------------------------------------------------------
E------------------------------------------------------------------------------
                                                                              

e----15--17-18---------------13-----15--17-18----------------------------------
B------------------16--13-16----------------------------8--------------10------
G-15-----------15----------------15-------------------8-------------10---------
D-------------------------------------------------5-8----------7-10------------
A--------------------------------------------6--6---------8--8-----------------
E------------------------------------------------------------------------------

        
Comments

No comments yet