Gametabs
Home
Tabs
Random

Main Theme

Average rating: 5.000

2 ratings

Composer:

Tabber:

Style:

Instrument:

Created: June 08, 2010 at 12:00 AM

            Song: Main Theme
Game: Metal Gear Solid
Composer: TAPPY
Tabbed by: Daugreano

Guitar:

   H     H       H     E   E   E   E     Q    H     E   E     H     E   E   E   E
E|-------------|-----------------------|--------------------|-----------------------|
B|-------------|-----------------------|--------------------|-----------------------|
G|-------------|-----------------------|--------------------|-----------2---0-------|
D|-2-----0-----|-----------0---2-------|-2----0---------0---|-2-----------------2---|
A|-------------|-3-----------------0---|------------3-------|-----------------------|
E|-------------|-----------------------|--------------------|-----------------------|
                                                                      .
   Q    H     E   E     H     E   E   E   E     Q    H     E   E     Q     E   Q    E   E
E|--------------------|-----------------------|--------------------|------------------------|
B|--------------------|-1---------0---1---3---|-1------------------|-0-----1---0------------|
G|----------------2---|-----------------------|------2-----0---2---|----------------2---0---|
D|------0-----2-------|-----------------------|--------------------|------------------------|
A|-3------------------|-----------------------|--------------------|------------------------|
E|--------------------|-----------------------|--------------------|------------------------|
             .
   W        H      E   E     H     E   E   E   E     Q    H     E   E     H     E   E   E   E   
E|--------|----------------|-----------------------|--------------------|-----------------------|
B|--------|--------5---3---|-1---------3---5-------|-5----3-----1---3---|-5---------10--8---5---|
G|-2------|----------------|-------------------2---|--------------------|-----------------------|
D|--------|----------------|-----------------------|--------------------|-----------------------|
A|--------|----------------|-----------------------|--------------------|-----------------------|
E|--------|----------------|-----------------------|--------------------|-----------------------|
                                                                      .
   Q    H     E   E     H     E   E   E   E     Q    H     E   E     Q     E   Q    E   E
E|--------------------|-----------------------|--------------------|------------------------|
B|-1----3-----5---10--|-13--------12--13--15--|-13---10----8---10--|-12----13--12---10--8---|
G|--------------------|-----------------------|--------------------|------------------------|
D|--------------------|-----------------------|--------------------|------------------------|
A|--------------------|-----------------------|--------------------|------------------------|
E|--------------------|-----------------------|--------------------|------------------------|

   W        H     Q    Q      H     E   E   E   E     Q    H     E   E     H     E   E   E   E
E|--------|-----------------|-----------------------|--------------------|-----------------------|
B|-10-----|-------7----5----|-3---------5---7---0---|-7----5-----3---5---|-7---------12--10--7---|
G|--------|-----------------|-----------------------|--------------------|-----------------------|
D|--------|-----------------|-----------------------|--------------------|-----------------------|
A|--------|-----------------|-----------------------|--------------------|-----------------------|
E|--------|-----------------|-----------------------|--------------------|-----------------------|
                                                                      .
   Q    H     E   E     H     E   E   E   E     Q    H     E   E     Q     E   Q    E   E
E|--------------------|-----------------------|--------------------|------------------------|
B|-3----5-----7---12--|-15--------14--15--17--|-15---12----10--12--|-14----15--14---12--10--|
G|--------------------|-----------------------|--------------------|------------------------|
D|--------------------|-----------------------|--------------------|------------------------|
A|--------------------|-----------------------|--------------------|------------------------|
E|--------------------|-----------------------|--------------------|------------------------|

   W
E|--------|
B|-12-----|
G|--------|
D|--------|
A|--------|
E|--------|




        
Comments

No comments yet