Gametabs
Home
Tabs
Random

Main Theme

Average rating: 4.625

8 ratings

Composer:

Tabber:

Style:

Instrument:

Created: October 02, 2007 at 12:00 AM

            Main Theme
Metal Gear Solid
Tabber: Alex Gladwin
11/10/06

e-------------------------------------------------------------------
B-------5--3---------------3--5--2--5--3------------------3--5------
G---------------5-------------------------------------5-------------
D-------------------------------------------------------------------
A-------------------------------------------------------------------
E-------------------------------------------------------------------

e-------5--3--------------------5---8------
B------------5-----3--------5--------------
G---------------5--------------------------
D------------------------------------------
A------------------------------------------
E------------------------------------------

e------7--8--10--8-------------------------7---8--7-----------------
B----------------------10----------8--10--------------10---8---10---
G-------------------------------------------------------------------
D-------------------------------------------------------------------
A-------------------------------------------------------------------
E-------------------------------------------------------------------

Repeat

e-------------------------------------------------------------------
B-------7--5---------------5--7--0--7--5-----------------5--7-------
G---------------7-------------------------------------7-------------
D-------------------------------------------------------------------
A-------------------------------------------------------------------
E-------------------------------------------------------------------

e-----7--5----------------------7---10-----
B----------7-----5----------7--------------
G-------------7----------------------------
D------------------------------------------
A------------------------------------------
E------------------------------------------

e------9--10--12--10-------------------------9--10--9-----------------
B------------------------12----------10--12---------------12---10---12
G---------------------------------------------------------------------
D---------------------------------------------------------------------
A---------------------------------------------------------------------
E---------------------------------------------------------------------

        
Comments

@Xetarcoss (April 09, 2007 at 1:13 AM)

dude that song rocks!!!! it is legible and it has sound men you rock!!!


@tugay (April 17, 2007 at 10:47 AM)

woow


@Gren (April 29, 2007 at 4:47 AM)

hmm, nice job for this one, I gotta learn this completely


@ChishioIji (April 30, 2007 at 6:08 AM)

hm, maybe not, but do you think it sounds more like it like this?:

e-------------------------------------------------------------------
B-------5--3---------------3--5--1--5--3------------------3--5------
G---------------5-------------------------------------5-------------
D-------------------------------------------------------------------
A-------------------------------------------------------------------
E-------------------------------------------------------------------

@ChishioIji (April 30, 2007 at 6:09 AM)

hm, that didn't work so well, but what I wanted to change is there and readable


@archard (April 30, 2007 at 12:57 PM)

Remember to use code tags around your tab notation to format it correctly as I say in the comments below this text box.


@MGsSnake89 (May 07, 2007 at 3:52 AM)

THIS is what it should be But its otherwise perfect Great Job

e-------------------------------------------------------------------
B-------5--3---------------3--5-----5--3------------------3--5------
G---------------5----------------2--------------------5-------------
D-------------------------------------------------------------------
A-------------------------------------------------------------------
E-------------------------------------------------------------------

@archard (May 07, 2007 at 12:20 PM)

Remember to use code tags. I fixed it for you.


@v (June 09, 2007 at 3:09 AM)

MGsSnake89 wins the cookie for getting the tone right.

Aside from that little flaw, its virtually fixed and is more or less perfect enough for a beginner to learn.


@Cliffdawg McDawg (June 21, 2007 at 4:02 AM)

MGsSnake89 is very correct, and I also believe the "open B" in the second corresponding stanza should be "Line G,4th fret" like this. (Great Job, though)

e-------------------------------------------------------------------
B-------7--5---------------5--7-----7--5-----------------5--7-------
G---------------7----------------4--------------------7-------------
D-------------------------------------------------------------------
A-------------------------------------------------------------------
E-------------------------------------------------------------------