Gametabs
Home
Tabs
Random

Ocelot Youth

Average rating: No ratings

Composer:

Tabber:

Style:

Instrument:

Created: April 02, 2014 at 12:00 AM

            Ocelot Youth
Metal Gear Solid 3: Snake Eater
Norihiko Hibino & Harry Gregson-Williams
Tab by Thomas N. (Nomad)
31/3/2014




Ocelot's signature background two note palm muted motif goes like this:

e|---------------------------------------------------------------|
B|---------------------------------------------------------------|
G|5-7-5-7-5-7-5-7-5-7-5-7-5-7-5-7-5-7-5-7-5-7-5-7-5-7-5-7-5-7-5-7|
D|---------------------------------------------------------------|
A|---------------------------------------------------------------|
E|---------------------------------------------------------------|

Another guitar plays these high note chords (you can add some mute-note (x) picking in rhythm in between):

e|5/---5/---5/------8/-------------------------------------------|
B|6/---6/---6/------8/-------------------------------------------|
G|7/---7/---7/------8/-------------------------------------------|
D|---------------------------------------------------------------|
A|---------------------------------------------------------------|
E|---------------------------------------------------------------|

The "solo" theme is this:

e|---------------------------------------------------------------|
B|---------------------------------------------------------------|
G|--------------9(slight slow bend)-----------5------------------|
D|5/7---7~--------------6~---------5-5~--5/7-----3--0(let ring)--|
A|----5-----------------------------5----------------------------|
E|---------------------------------------------------------------|

Some orchestral instrumentation follows. And the final lick goes like:

e|---------------------------------------------------------------|
B|--8h9p8~-------------------------------------------------------|
G|7---------7-10~-7----------------------------------------------|
D|---------------------------------------------------------------|
A|---------------------------------------------------------------|
E|---------------------------------------------------------------|


| /  slide
| h  hammer-on
| p  pull-off
| ~  vibrato
| x  Mute note


Metal Gear Solid 3: Snake Eater

        
Comments

No comments yet