Gametabs
Home
Tabs
Random

Main Theme

Average rating: 4.750

4 ratings

Composer:

Tabber:

Style:

Instrument:

Created: June 17, 2014 at 12:00 AM

                                              Main Theme                                    


Metal Gear Solid 3: Snake Eater (Outro)
Dropped D tuning: DADGBE (capo on 5th fret)
Tabbed by: Alfa_ice



     H         H            H        E  E  E  E     Q    Q    Q    E  E   
E||----------------------|-----------------------|-----------------------|
B||----------------------|-----------------------|-----------------------|
G||--4~--------2~--------|--------------2--4-----|--4----2---------0--2--|
D||----------------------|--5-----------------2--|-----------------------|
A||----------------------|--2--------2-----------|--3---------3----------|
D||----------------------|--2--------------------|-----------------------|


  H        E  E  E  E     Q    Q    Q    E  E     H         E  E  E  E   
--------------0--------|--------------------0--|--3~-----------2--3--5--|
--0--------------3--0--|-----------------0-----|------------------------|
-----------------------|--0----2---------------|------------------------|
--0--------0-----------|-----------------------|------------------------|
-----------------------|--3---------3----------|--2---------2-----------|
-----------------------|-----------------------|------------------------|


                                    |----3----|                          
  Q    Q    Q    E  E     Q.     E  Q    Q    Q       H        H         
--3----0------------0--|--2------3--2----0---------|--0-----------------|
-----------------3-----|----------------------3----|--------------------|
-----------------------|---------------------------|--------------------|
-----------------------|--0---------0--------------|--0-----------------|
--3---------3----------|---------------------------|--0--------0--------|
-----------------------|--0------------------------|--------------------|


  H        Q    Q       H        E  E  E  E     Q    Q    Q    E  E   
--5--------7----5----|--3-----------5--7--0--|--7----5---------3--5--|
---------------------|-----------------------|-----------------------|
---------------------|-----------------------|-----------------------|
---------------------|-----------------------|-----------------------|
--4--------4---------|--2--------2-----------|--3---------3----------|
---------------------|-----------------------|-----------------------|


  H        E   E   E  E     Q    Q    Q    E  E     H         E  E  E  E   
--7-----------12--10--7--|--3----5------------0--|--3~-----------2--3--5--|
-------------------------|-----------------------|------------------------|
-------------------------|-----------------4-----|--4---------------------|
--0--------0-------------|-----------------------|------------------------|
-------------------------|--3---------3----------|--2---------2-----------|
-------------------------|-----------------------|------------------------|


                                                      ^                  
                                    |----3----|                          
  Q    Q    Q    E  E     Q.     E  Q    Q    Q       H        H         
--3----0------------0--|--2------3--2----0---------|--0-----------------|
-----------------3-----|----------------------3----|--3-----------------|
-----------------------|---------------------------|--------------------|
-----------------------|--0---------0--------------|--------------------|
--3---------3----------|---------------------------|--0--------0--------|
-----------------------|--0------------------------|--------------------|


  ^                                                                   
  H        Q    Q       H        E  E  E  E     Q    Q    Q    E  E   
---------------------|-----------------------|-----------------------|
--2--------2----0----|--------------0--2-----|--2----0------------0--|
---------------------|--2--------------------|-----------------2-----|
--2------------------|--------------------4--|-----------------------|
--0--------0---------|-----------------------|-----------------------|
---------------------|--4--------4-----------|--5---------5----------|


  H        E  E  E  E     Q    Q    Q    E  E     H         E  E  E  E   
--------------2--0-----|-----------------------|--5~-----------4--5--7--|
--2--------------------|-------0------------7--|------------------------|
--------------------6--|-----------------6-----|------------------------|
-----------------------|--7--------------------|------------------------|
--0--------0-----------|-----------------------|--4---------4-----------|
-----------------------|--5---------5----------|------------------------|


                                                      ^                  
                                    |----3----|                          
  Q    Q    Q    E  E     Q.     E  Q    Q    Q       H        H         
--5----2---------0--2--|--4------5--4----2---------|--2-----------------|
-----------------------|----------------------5----|--------------------|
-----------------------|---------------------------|--------------------|
--0---------0----------|--2---------2--------------|--4-----------------|
-----------------------|---------------------------|--2--------2--------|
-----------------------|--2------------------------|--------------------|


  ^                     ^                                         
  H        Q    Q       H        H            H         H         
---------------------|---------------------|------------0--------|
--4------------------|---------------------|--2~-----------------|
--4------------------|--2--------4~--------|---------------------|
--4--------4----6----|--0------------------|---------------------|
--2--------2---------|--0------------------|---------------------|
---------------------|--0------------------|--2------------------|


  ^                  
  W                  
--x----------------||
--7----------------||
--6----------------||
--4----------------||
--4----------------||
--4----------------||




Duration Legend
---------------
W - whole
H - half
Q - quarter
E - 8th
S - 16th
T - 32nd
X - 64th
. - note dotted
|-n-|  - n-tuplets


Tablature Legend
----------------
L - tied note
x - dead note
g - grace note
(n) - ghost note
> - accentuded note
NH - natural harmonic
AH - artificial harmonic
TH - tapped harmonic
SH - semi harmonic
PH - pitch harmonic
h - hammer on
p - pull off
b - bend
br - bendRelease
pb - preBend
pbr - preBendRelease
brb - bendReleaseBend
\n/ - tremolo bar dip
\n - tremolo bar dive
-/n - tremolo bar Release up
/n\ - tremolo bar inverted dip
/n - tremolo bar return
-\n - tremolo bar Release down
S - shift slide
s - legato slide
/ -  slide into from below or out of upwards
\ -  slide into from above or out of downwards
~ - vibrato
W - wide vibrato
tr - trill
TP - tremolo picking
T - tapping
S - slap
P - pop
< - fade in
^ - brush up
v - brush down

        
Comments

@BigHeadClan (June 19, 2014 at 6:53 PM)

Nice, I really need to get to work on my Metal Gear Medley ><