Gametabs
Home
Tabs
Random

Zanzibar Breeze

Average rating: No ratings

Composer:

Tabber:

Style:

Instrument:

Created: October 13, 2016 at 12:00 AM

            Song: Zanzibar Breeze
Artist: Konami Kukeiha Club
Game: Metal Gear 2: Solid Snake
Tabbed by: ALimit

Guitar 1
Part 1 (Intro)
E|-------------------------------------------------------
B|-------------------------------------------------------
G|-------------------------------------------------------
D|-------------------------------------------------------
A|---1--2--4--6-4-2-4-2-1-2-1---1--2--4--6-4-2-4-2-1-2-1-
E|-4--------------------------4--------------------------

Part 2
E|-------------------------------------------------------
B|-------------------------------------------------------
G|---------------------------------------------------4-3-
D|------------------------------------------------6-4----
A|-6--4--6--7--6--4--2--4--2--4---6--4--6--7--6--4-------
E|-------------------------------------------------------

E|------------------------------------------------------------------------
B|------------------------------------------------------------------4-5-7-
G|---------------------------------------------------4-4------3-4-6-------
D|------------------------------------------------6-4-----4-6-------------
A|-6--4--6--7--6--4--2--4--2--4---6--4--6--7--6---------------------------
E|-----------------------------------------------4------------------------

Part 3
E|-------------------------------------------------------------------------------------------
B|-------------------------------------------------------------------------------------------
G|-------------6-6-4-4-6-6-4-4---6--------------4-4-3-3-4-4-3-3--4-3-1------1--4--4--3--1--3-
D|-----------4-----------------6-----4--1---1-2------------------------4-1-------------------
A|-4-4-7-6-7------------------------2-2---4--------------------------------------------------
E|--4----------------------------------------------------------------------------------------

Part 4
E|--------------------------------------------------------------------
B|---------------------------------------------------4----------------
G|----------------------------3-------3--------4--4-----4--6--4--3--6-
D|-----6-------4-6--------4-4-----4-6---------------------------------
A|-4-4---4-6-7-------------6----6-------------------------------------
E|--4-----------------------------------------------------------------

Part 5
E|-----------------------------------------------------------------------------------
B|-----------------------------------------------------------------------------------
G|-----------------------------------------------------------------------------------
D|---------------------1------4—----------------------------------1------4-----------
A|-------2------4--------------------2-1------------2------4---------------------2-2-
E|-4-2-4--4-2-4--4-2-4--4-2-4--4-2-4-----4-2--4-2-4--4-2-4--4-2-4--4-2-4---4-2-4-----

E|-----------------------------------------------------------------------------------------
B|-----------------------------------------------------------------------------------------
G|-----------------------------------------------------------------------------------------
D|---------------------1------4—----------------------------------1------4-1---------------
A|-------2------4--------------------2-1------------2------4-----------------4-2-4-2-1-2-1-
E|-4-2-4--4-2-4--4-2-4--4-2-4--4-2-4-----4-2--4-2-4--4-2-4--4-2-4--4-2-4-------------------

Guitar 1:

Part 1
Part 2
Part 3
Part 4
Part 5
Part 2
Part 3
Part 4
Part 5
Part 2

Guitar 2

Part 1
E|-------------------------------------
B|-------------------------------------
G|-------------------------------------
D|-------------------------------------
A|-------------------------------------
E|—4-4-4--4-4-4-4-4---4-4-4--4-4-4-4-4-

Part 2
E|----------------------------------------------------------------------------
B|----------------------------------------------------------------------------
G|----------------------------------------------------------------------------
D|----------------------------------------------------------------------------
A|----------------------------------------------------------------------------
E|--4-4-4--4-4-4-4-4---4-4-4--4-4-4-4-4---2-2-2--2-2-2-2-2---2-2-2--2-2-2-2-2-

Part 3
E|----------------------------------------------------------------------------
B|----------------------------------------------------------------------------
G|----------------------------------------------------------------------------
D|----------------------------------------------------------------------------
A|----------------------------------------------------------------------------
E|--4-4-4--4-4-4-4-4---4-4-4--4-4-4-4-4---2-2-2--2-2-2-2-2---2-2-2--2-2-2-2-2-

E|----------------------------------------------------------------------------
B|----------------------------------------------------------------------------
G|----------------------------------------------------------------------------
D|----------------------------------------------------------------------------
A|----------------------------------------------------------------------------
E|--6-6-6--6-6-6-6-6---6-6-6--6-6-6-6-6---4-4-4--4-4-4-4-4---2-2-2--2-2-2-2-2-

Part 4
E|-----------------------------------
B|-----------------------------------
G|-----------------------------------
D|-----------------------------------
A|-----------------------------------
E|-4-4-4–4-4-4-4-4---4-4-4-4-4-4-4-4-

Guitar 2:
Part 1 x4
Part 2 x4
Part 3 x2
Part 4 x2
Part 2 x2
Part 3 x2
Part 4 x2
Part 2 x2
        
Comments

No comments yet