Gametabs
Home
Tabs
Random

X Vs. Zero

Average rating: 5.000

2 ratings

Composer:

Tabber:

Style:

Instrument:

Created: May 23, 2009 at 12:00 AM

            Megaman X5
X Vs. Zero
Composed by Naoya Kamisaka

Standard tuning (EADGBE)


130 BPM

    S S S S S S S S S S S E.  E   S S S S S S S S E.  E.  E
|------------------------------|----------------------------|
|------------------------------|----------------------------|
|*-----------------------------|-----------------7---2---5-*|
|*-----------------------5---7-|-----------------7---2---5-*|
|------------------------5---7-|-----------------5---0---3--|
|--0-0-0-0-0-0-0-0-0-0-0-3---5-|-0-0-0-0-0-0-0-0------------|


                                                   
    E.  E.   E.   E.   E   E     E.  E.   E.   E.   S  S  E  
|-----------------------------|-------------------------------|
|-------12---10---------------|------12---10---12---13-12-10--|
|*--9-------------12---11-----|--9---------------------------*|
|*-------------------------12-|------------------------------*|
|-----------------------------|-------------------------------|
|-----------------------------|-------------------------------|

   w                 Q.      S  S  Q.      E       E.   E.   E   Q     S  S  E
|----------------|-----------------------------|--------------------------------|
|--12------------|-----------------------------|--------------------------------|
|----------------|*----------------------------|--14----------------------------|
|----------------|*--14------14-16-17------17--|-------17---16--17----16-17-16--|
|----------------|-----------------------------|--------------------------------|
|----------------|-----------------------------|--------------------------------|


                               FIRST ENDING
    Q.      S  S  Q.      E      E.   E.   E   E   E   S  S  E 
|----------------------------|----------------------------------|
|----------------------------|----------------------------------|
|----------------------------|--16---14-------14------------14-*|
|--14------14-16-17------17--|------------17------17--16-17----*|
|----------------------------|----------------------------------|
|----------------------------|----------------------------------|


  SECOND ENDING                
   E.   E.   E   E.   E.   E     H         H        |  E.   E.   Q     E   E   E
|-----------------------------|---------------------|-----------------------------|
|-----------------------------|---------------------|-----------------------------|
|--16---14--------------------|--16-----------------|--14---12--------------------|
|------------17--16---14---17-|------------14-------|------------16----12------12-|
|-----------------------------|---------------------|----------------------14-----|
|-----------------------------|---------------------|-----------------------------|


    H         S  S  S  S  S S  S S      S  S  S S  S  S Q     Q.     
e|-----------------------------------|------------------------10------|
B|-------------------------------12--|--10-10-------------------------|
G|-----------------------------9-----|----------12-12---11------------|
D|--14--------------------9-10-------|--------------------------------|
A|------------------10-12------------|--------------------------------|
E|------------12-14------------------|--------------------------------|

   H         Q     Q        E.   E  S  E   E   E   S  E.   
|--12--------------12----|---------------------------------|
|------------12----------|--15---13----12------12--13-15---|
|------------------------|-----------------14--------------|
|------------------------|---------------------------------|
|------------------------|---------------------------------|
|------------------------|---------------------------------|

   H         S S S S  S S S  S      H         H           
|---------------------7-8-10-12--|--10--------11--------|
|--13----------7-8-10------------|----------------------|
|------------9-------------------|----------------------|
|--------------------------------|----------------------|
|--------------------------------|----------------------|
|--------------------------------|----------------------|

   E.   E   S  E   E.   E   S  E     E.   E.   E   E.   S E   E
|---------------------------------|-------------------------------|
|---------------------------------|----------------15---L---------|
|--16-------12-14--16-------12-14-|--16--------16---------17--16--|
|-------14--------------14--------|-------17----------------------|
|---------------------------------|-------------------------------|
|---------------------------------|-------------------------------|


    E.   E.   E   Q     E   E      E.   E.   E   Q.      E 
e|-------14---15----------------|-----------------------------|
B|--17------------17----15------|------------15---------------|
G|--------------------------17--|--16---17-------14------L----|
D|------------------------------|-----------------------------|
A|------------------------------|-----------------------------|
E|------------------------------|-----------------------------|



   E.   E   S  E   E.   E   S  E     E.   E.   E   E.   S  E   E
|---------------------------------|-------------------------------|
|---------------------------------|-------15---13-----------------|
|--16-------12-14--16-------12-14-|--16------------16---L-14--12--|
|-------14--------------14--------|-------------------------------|
|---------------------------------|-------------------------------|
|---------------------------------|-------------------------------|



    E.   E.   E   Q     E   E      E.   E.   E   Q.      E    H         E.   E.   E
|-------14---15----------------|---------------------------|--------------------------|
|--17------------17----15------|----------------15------L--|--17------------------17--|
|--------------------------17--|--16---14---12-------------|-----------------17-------|
|------------------------------|---------------------------|------------17------------|
|------------------------------|---------------------------|--------------------------|
|------------------------------|---------------------------|--------------------------|


    W
|----------------|
|--16------------|
|----------------|
|----------------|
|----------------|
|----------------|

Repeat as many times as you want.




**ALTERNATE WAY OF PLAYING THE EIGHT MEASURES THAT FOLLOW THE 
(Its the same exact riff, but in the lower register, which is the way I prefer to play it)


 
   E.   E.   E   E.   E.   E     H         H        |  E.   E.   Q     E   E   E
|-----------------------------|---------------------|-----------------------------|
|-----------------------------|---------------------|-----------------------------|
|--16---14--------------------|---------------------|-------0---------------------|
|------------17--16---14---17-|--9------------------|--7----------4----0-------0--|
|-----------------------------|------------7--------|----------------------2------|
|-----------------------------|---------------------|-----------------------------|


    H         S S S S S S S S    S S S S S S Q     Q.     
|----------------------------|---------------------------|
|--------------------------0-|--------------------3------|
|----------------------------|--2-2---0-0----------------|
|--2---------------------2---|--------------4------------|
|------------------0-2-3-----|---------------------------|
|------------0-2-3-----------|---------------------------|

   H         Q     Q        E.   E  S  E   E  E   S  E.   
|------------------------|-------------------------------|
|------------------------|-------------0------0----------|
|------------0-----------|-------------------------------|
|--14--------------14----|--12---10--------7-----10-12---|
|------------------------|-------------------------------|
|------------------------|-------------------------------|


   H         S S S S S S S S    H        H
|----------------------------|--------------------|
|----------------------------|--------------------|
|--------------------4-5-7-9-|--7--------8--------|
|--10------------5-7---------|--------------------|
|------------7-9-------------|--------------------|
|----------------------------|--------------------|

Then the rest is played the same.



        
Comments

@LoNe (June 07, 2009 at 7:04 PM)

I thank you for this tab, this is crazy.

This music is very difficult, but with training, I'm going to play that !

See ya.


@KemneeOmega (August 04, 2012 at 9:33 PM)

Okay, so I think you got this wrong. You did the intro just fine, but then you moved on to where the synthesizer's job is. It's probably fine, I've seen a tab that did that on another song, but it's not quite accurate. If you listen, the guitar is in the background.

But keep going. :)