Gametabs
Home
Tabs
Random

Squid Adler

Average rating: 5.000

1 ratings

Composer:

Tabber:

Style:

Instrument:

Created: October 04, 2011 at 12:00 AM

             Mega Man X5-Squid Adler  
  Composed by Naoto Tanaka,Naoya Kamisaka and Takuya Miyawaki 
  Tabbed By JordanVS                           


Lead Guitar



      S  S  S  S  S  S  S  S  S  S  S  S  S  S  S  S  
E||-----------12-13-12----------12-13-12----------12-|
B||--13----13----------13----13----------13----13----|
G||-----14----------------14----------------14-------|
D||--------------------------------------------------|
A||--------------------------------------------------|
E||--------------------------------------------------|


     S  S  S  S  S  S  S  S  S  S  S  S  S  S  S  S  
|------------12-13-12----------12-13-12----------12-|
|---13----13----------13----13----------13----13----|
|*-----14----------------14----------------14-------|
|*--------------------------------------------------|
|---------------------------------------------------|
|---------------------------------------------------|


   S  S  S  S  S  S  S  S  S  S  S  S  S  S  S  S  
-----------12-13-12----------12-13-12----------12-|
--13----13----------13----13----------13----13----|
-----14----------------14----------------14-------|
--------------------------------------------------|
--------------------------------------------------|
--------------------------------------------------|


   S  S  S  S  S  S  S  S  S  S  S  S  S  S  S  S  
-----------12-13-12----------12-13-12----------12-|
--13----13----------13----13----------13----13----|
-----14----------------14----------------14-------|
--------------------------------------------------|
--------------------------------------------------|
--------------------------------------------------|


   S  S  S  S  S  S  S  S  S  S  S  S  S  S  S  S  
-----------12-13-12----------12-13-12----------12-|
--13----13----------13----13----------13----13----|
-----14----------------14----------------14-------|
--------------------------------------------------|
--------------------------------------------------|
--------------------------------------------------|


   S  S  S  S  S  S  S  S  S  S  S  S  S  S  S  S  
-----------12-13-12----------12-13-12----------12-|
--13----13----------13----13----------13----13----|
-----14----------------14----------------14-------|
--------------------------------------------------|
--------------------------------------------------|
--------------------------------------------------|


   S  S  S  S  S  S  S  S  S  S  S  S  S  S  S  S  
-----------12-13-12----------12-13-12----------12-|
--13----13----------13----13----------13----13----|
-----14----------------14----------------14-------|
--------------------------------------------------|
--------------------------------------------------|
--------------------------------------------------|


   S  S  S  S  S  S  S  S  S  S  S  S  S  S  S  S  
-----------12-13-12----------12-13-12----------12-|
--13----13----------13----13----------13----13----|
-----14----------------14----------------14-------|
--------------------------------------------------|
--------------------------------------------------|
--------------------------------------------------|


   S  S  S  S  S  S  S  S  S  S  S  S  S  S  S  S  
-----------12-13-12-------20-17-------------------|
--13----13----------13----------18-17-------------|
-----14----------------14-------------17-14-------|
--------------------------------------------15-14-|
--------------------------------------------------|
--------------------------------------------------|


  E.  T T   E   E    E   Q    E     H        E   E   E   E   
---------------------------------|--------------------------|
---------------------------------|--------------------------|
----------8g9-----------12----9--|--L-------------------14--|
---------------10S--12-----------|--------------12--14------|
---------------------------------|--------------------------|
---------------------------------|--------------------------|


  H        E   E   E   E     H.           Q     
--------------------------|--------------------|
--------------------------|--------------------|
--L-----------12--14------|--L-----------------|
----------------------14--|--------------------|
--------------------------|--------------------|
--------------------------|--------------------|


  E.  T T     E   E   E   Q     E     H        E   E   E   E   
-----------------------------------|--------------------------|
-------------------------13--------|----------------------15--|
----------13g14------12--------14--|--L-----------12--14------|
-----------------15----------------|--------------------------|
-----------------------------------|--------------------------|
-----------------------------------|--------------------------|


  H        E   E   E   E     W                 
--------------------------|-------------------|
-----------L--13--15------|-------------------|
----------------------14--|--L----------------|
--------------------------|-------------------|
--------------------------|-------------------|
--------------------------|-------------------|


  E.  T T    E   E    E   Q     E     H        E   E   E   E   
-----------------------------------|--------------------------|
-----------------------------------|--------------13--12------|
----------9g10-----------12----10--|-----------L----------12--|
----------------12S--14------------|--------------------------|
-----------------------------------|--------------------------|
-----------------------------------|--------------------------|


   E.   E.   H        E      E.   E.   H        E   
-------------------------|-------------------------|
--12---13---15--------L--|------------12--------L--|
-------------------------|--12---14----------------|
-------------------------|-------------------------|
-------------------------|-------------------------|
-------------------------|-------------------------|


  E.  T T     E   E   E   Q     E     H        E   E   E   E   
-----------------------------------|--------------------------|
----------11g12----------13----12--|-----------L--17--15------|
-----------------12--14------------|----------------------16--|
-----------------------------------|--------------------------|
-----------------------------------|--------------------------|
-----------------------------------|--------------------------|


   E.   E.   Q     E   Q        H.            S  S  S  S  
------------------15--13~----|--L------------------------|
--18---17---15---------------|---------------------------|
-----------------------------|------------------------12-|
-----------------------------|---------------12-14-15----|
-----------------------------|---------------------------|
-----------------------------|---------------------------|


   Q.      Q     E   Q       H.            E    E     W                 
--------------------------|------------------------|-------------------|
--------------------------|------------------------|-------------------|
--14------12----14--------|--L---------------------|--L----------------|
--------------------14----|---------------10S--12--|-------------------|
--------------------------|------------------------|-------------------|
--------------------------|------------------------|-------------------|


  H.            S  S  S  S     Q.      Q     E   Q     
---------------------------|--------------------13----|
------------------------13-|--15------13----15--------|
--L------------12-14-15----|--------------------------|
---------------------------|--------------------------|
---------------------------|--------------------------|
---------------------------|--------------------------|


  H        E   E   E   E     W                   W                 
--L--------L--------------|-------------------|-------------------|
--------------13--15------|--L----------------|--L----------------|
----------------------15--|-------------------|-------------------|
--------------------------|-------------------|-------------------|
--------------------------|-------------------|-------------------|
--------------------------|-------------------|-------------------|


  W                   W                   W                   W                 
-------------------|-------------------|-------------------|-------------------|
-------------------|-------------------|-------------------|-------------------|
-------------------|-------------------|-------------------|-------------------|
-------------------|-------------------|-------------------|-------------------|
-------------------|-------------------|-------------------|-------------------|
-------------------|-------------------|-------------------|-------------------|


  W                   W                   W                   W                 
-------------------|-------------------|-------------------|-------------------|
-------------------|-------------------|-------------------|-------------------|
-------------------|-------------------|-------------------|-------------------|
-------------------|-------------------|-------------------|-------------------|
-------------------|-------------------|-------------------|-------------------|
-------------------|-------------------|-------------------|-------------------|


  S  S S  S  S  S  S  S  S  S  S  S  S  S  S  S 99x
--8----8-12-13-12----------12-13-12----------12--||
----10------------13----13----------13----13-----||
---------------------14----------------14-------*||
------------------------------------------------*||
-------------------------------------------------||
-------------------------------------------------||


		Bass



     H.           E  E       E  E  E  E  Q    E  E     E  E  E  E  Q    E  E   
G||---------------------||--------------------------|-------------------------|
D||------------------0--||*--L--0-----0--0----0--0--|--L--0-----0--0----0--0--|
A||---------------------||*--------3----------------|--------3----------------|
E||---------------------||--------------------------|-------------------------|


  E  E  E  E  Q    E  E     E  E  E  E  E  E  E  E     E  E  E  E  Q    E  E   
-----------0-------------|-----2--0-----------------|-------------------------|
--L--0--3-----0----0--0--|--L--------0--0--------0--|--L--0-----0--0----0--0--|
-------------------------|-----------------3--4-----|--------3----------------|
-------------------------|--------------------------|-------------------------|


  E  E  E  E  Q    E  E     E  E  E  E  Q    E  E     E  E  E  E  E  E  E  E   
-------------------------|-----------0-------------|-----2--0-----------------|
--L--0-----0--0----0--0--|--L--0--3-----0----0--0--|--L--------0--0--------0--|
--------3----------------|-------------------------|-----------------3--4-----|
-------------------------|-------------------------|--------------------------|


  E  E  E  E  Q    E  E     E  E  E  E  Q    E  E     E  E  E  E  Q    E  E   
-------------------------|-------------------------|-----------0-------------|
--L--0-----0--0----0--0--|--L--0-----0--0----0--0--|--L--0--3-----0----0--0--|
--------3----------------|--------3----------------|-------------------------|
-------------------------|-------------------------|-------------------------|


  E  E  E  E  E  E  E  E     E  E  E  E  Q    E  E     E  E  E  E  Q    E  E   
-----2--0-----------------|-------------------------|-------------------------|
--L--------0--0--------0--|--L--0-----0--0----0--0--|--L--0-----0--0----0--0--|
-----------------3--4-----|--------3----------------|--------3----------------|
--------------------------|-------------------------|-------------------------|


  E  E  E  E  Q    E  E     E  E  E  E  E  E  E  E     E  E  E  E  Q    E  E   
-----------0-------------|-----2--0-----------------|-------------------------|
--L--0--3-----0----0--0--|--L--------0--0-----------|-------------------------|
-------------------------|--------------------------|-------------------------|
-------------------------|-----------------1--2--3--|--L--3--1--3--3----3--3--|


  E  E  E  E  Q    E  E     E  E  E  E  Q    E  E     E  E  E  E  E  E  E  E   
-------------------------|-------------------------|--------------------------|
-------------------------|-----------0-------------|-----0--------------------|
-------------------------|--------3----------------|--------2-----------------|
--L--3--1--3--3----3--3--|--L--3--------3----3--3--|--L--------3--3--1--2--3--|


  E  E  E  E  Q    E  E     E  E  E  E  Q    E  E     E  E  E  E  Q    E  E   
-------------------------|-------------------------|-------------------------|
-------------------------|-------------------------|-----------0-------------|
-------------------------|-------------------------|--------3----------------|
--L--3--1--3--3----3--3--|--L--3--1--3--3----3--3--|--L--3--------3----3--3--|


  E  E  E  Q    E  E  E     Q    Q    E  Q    E     Q    Q    E  Q    E   
-------------------------|-----------------------|-----------------------|
-----0-------------------|-----------------------|-----------------------|
--------2----------------|--1----1----1--1----1--|--3----3----3--3----3--|
--L--------3----3--3--3--|-----------------------|-----------------------|


  Q    Q    E  Q    E     Q    Q    E  Q    E     E  E  Q    S S Q    E   
-----------------------|-----------------------|-------------------------|
--0----0----0--0----0--|--0----0----0--0----0--|--1--1--1----1---1----3--|
-----------------------|-----------------------|-------------------------|
-----------------------|-----------------------|-------------------------|


  E  E  Q    S S Q    E     Q    Q    E  Q    E     Q    Q    E  E  S S E   
-------------------------|-----------------------|-------------------------|
--L--3--3----3-----------|-----------------------|-------------------------|
-----------------3-------|-----------------------|----------------------3--|
----------------------3--|--3----3----3--3----3--|--3----3----3--3--3------|


  E  S S Q    Q    S S E     E  S S Q    Q    E  E     E  S S Q    Q    S S E   
--------------------------|-------------------------|--------------------------|
-------------------1---0--|--L--0--------0----------|-------------------1---0--|
--L--3--------3-----------|---------0------------3--|--L--3--------3-----------|
---------3----------------|-------------------------|---------3----------------|


  E  S S Q    Q    E  E     E  S S Q    Q    S S E     E  S S Q    Q    E  E   
-------------------------|--------------------------|-------------------------|
--L--0--------0----------|-------------------1---0--|--L--0--------0----------|
---------0------------3--|--L--3--------3-----------|---------0------------3--|
-------------------------|---------3----------------|-------------------------|


  E  S S Q    Q    S S E     W                   H.           E  E  99x
--------------------------|-------------------|----------------------||
-------------------1---0--|--L----------------|--L---------------0--*||
--L--3--------3-----------|-------------------|---------------------*||
---------3----------------|-------------------|----------------------||






Duration Legend
---------------
W - whole
H - half
Q - quarter
E - 8th
S - 16th
T - 32nd
X - 64th
. - note dotted
|-n-|  - n-tuplets


Tablature Legend
----------------
L - tied note
x - dead note
g - grace note
(n) - ghost note
> - accentuded note
NH - natural harmonic
AH - artificial harmonic
TH - tapped harmonic
SH - semi harmonic
PH - pitch harmonic
h - hammer on
p - pull off
b - bend
br - bendRelease
pb - preBend
pbr - preBendRelease
brb - bendReleaseBend
\n/ - tremolo bar dip
\n - tremolo bar dive
-/n - tremolo bar Release up
/n\ - tremolo bar inverted dip
/n - tremolo bar return
-\n - tremolo bar Release down
S - shift slide
s - legato slide
/ -  slide into from below or out of upwards
\ -  slide into from above or out of downwards
~ - vibrato
W - wide vibrato
tr - trill
TP - tremolo picking
T - tapping
S - slap
P - pop
< - fade in
^ - brush up
v - brush down
        
Comments

@auriplane (October 05, 2011 at 2:37 AM)

Sorry I'm submitting a bunch of tabs in a row, so your tab is getting knocked off the front page... so I'm commenting to make sure people see your tab anyway XD


@surreal (October 05, 2011 at 8:13 AM)

thissss song was good.