Gametabs
Home
Tabs
Random

Sigma Boss Battle

Average rating: 5.000

1 ratings

Composer:

Tabber:

Style:

Instrument:

Created: June 23, 2015 at 12:00 AM

            Sigma Boss Battle                                                     
First Boss Theme
Megaman X5
Naoto Tanaka , Naoya Kamisaka & Takuya Miyawaki   
JordanVS
                                                                                            
Lead 
                        H         H            Q     Q     Q     Q        H         H         
E||-------|-------||---15--------16--------|--15----18----16----------|--15--------16--------|
B||-------|-------||-----------------------|--------------------18----|----------------------|
G||-------|-------||*----------------------|--------------------------|----------------------|
D||-------|-------||*----------------------|--------------------------|----------------------|
A||-------|-------||-----------------------|--------------------------|----------------------|
E||-------|-------||-----------------------|--------------------------|----------------------|


   Q     Q     Q     Q        H         H            Q     Q     Q     Q        H         H         
--15----18----16----------|--15--------16--------|--15----18----16----------|--15--------16--------|
--------------------18----|----------------------|--------------------18----|----------------------|
--------------------------|----------------------|--------------------------|----------------------|
--------------------------|----------------------|--------------------------|----------------------|
--------------------------|----------------------|--------------------------|----------------------|
--------------------------|----------------------|--------------------------|----------------------|


   Q     Q     Q     Q        S  S  S  S  Q     S  S  S  S  Q        S  S  S  S  Q     S  S  S  S  S  S  S  S  
--15----16----18----19----|--------------------------------------|--------------------------------------------|
--------------------------|--------------------------------------|--------------------11----------------------|
--------------------------|-----------10-12----------10-12-13----|-----------10-12-------13-12-10-13-12-10----|
--------------------------|--10-12-13----------11-13-------------|--10-12-13-------------------------------13-|
--------------------------|--------------------------------------|--------------------------------------------|
--------------------------|--------------------------------------|--------------------------------------------|


   S  S  S  S  Q     S  S  S  S  Q        S  S  S  S  E   S  S  Q     Q        S  S  S  S  Q     S  S  S  S  Q     
--------------------------------------|------------------------------------|-----------13-15----------13-15-16----|
--------------------------------------|------------------------11----------|--13-15-16----------14-16-------------|
-----------10-12----------10-12-13----|-----------10-12--10-12-------13----|--------------------------------------|
--10-12-13----------11-13-------------|--10-12-13--------------------------|--------------------------------------|
--------------------------------------|------------------------------------|--------------------------------------|
--------------------------------------|------------------------------------|--------------------------------------|


   S  S  S  S  Q     S  S  S  S  S  S  S  S     S  S  S  S  Q     S  S  S  S  Q     
-----------13-15----18-16-15----16-15-------|--------------15----------13-15-16----|
--13-15-16-------------------18-------18-16-|-----15-16-18-------14-16-------------|
--------------------------------------------|--17----------------------------------|
--------------------------------------------|--------------------------------------|
--------------------------------------------|--------------------------------------|
--------------------------------------------|--------------------------------------|

1.					       2.
   S  S  S  S  Q     S  S  S  S  S  S  S  S       S  S  S  S  Q     S  S  S  S  S  S  S  S    W                 
--------------15----18-16-15----20-18-16-15--||--------------15----18-16-------20-18-16----|-------------------|
-----15-16-18----------------18--------------||-----15-16-18-------------20-18----------20-|-------------------|
--17----------------------------------------*||--17----------------------------------------|-------------------|
--------------------------------------------*||--------------------------------------------|-------------------|
---------------------------------------------||--------------------------------------------|-------------------|
---------------------------------------------||--------------------------------------------|-------------------|


  W                   W                   W                   W                   W                   W                 
-------------------|-------------------|-------------------|-------------------|-------------------|-------------------|
-------------------|-------------------|-------------------|-------------------|-------------------|-------------------|
-------------------|-------------------|-------------------|-------------------|-------------------|-------------------|
-------------------|-------------------|-------------------|-------------------|-------------------|-------------------|
-------------------|-------------------|-------------------|-------------------|-------------------|-------------------|
-------------------|-------------------|-------------------|-------------------|-------------------|-------------------|


  W                  
-------------------||
-------------------||
-------------------||
-------------------||
-------------------||
-------------------||

Lead -8 
                       H        H           Q     Q    Q     Q       H        H           Q     Q    Q     Q     
E||-------|-------||---------------------|------------------------|--------------------|------------------------|
B||-------|-------||---8--------9--------|--8----11----9----------|--8--------9--------|--8----11----9----------|
G||-------|-------||*--------------------|------------------10----|--------------------|------------------10----|
D||-------|-------||*--------------------|------------------------|--------------------|------------------------|
A||-------|-------||---------------------|------------------------|--------------------|------------------------|
E||-------|-------||---------------------|------------------------|--------------------|------------------------|


  H        H           Q     Q    Q     Q       H        H           Q    Q     Q     Q     
--------------------|------------------------|--------------------|------------------------|
--8--------9--------|--8----11----9----------|--8--------9--------|--8----9----11----12----|
--------------------|------------------10----|--------------------|------------------------|
--------------------|------------------------|--------------------|------------------------|
--------------------|------------------------|--------------------|------------------------|
--------------------|------------------------|--------------------|------------------------|


  S S S S Q    S S S S Q       S S S S Q    S S S S S S S S    S S S S Q    S S S S Q       S S S S E  S S Q    Q     
----------------------------|-------------------------------|----------------------------|---------------------------|
----------------------------|-------------------------------|----------------------------|---------------------------|
----------------------------|---------------3---------------|----------------------------|-----------------3---------|
--------3-5--------3-5-6----|--------3-5------6-5-3-6-5-3---|--------3-5--------3-5-6----|--------3-5--3-5------6----|
--3-5-6--------4-6----------|--3-5-6----------------------6-|--3-5-6--------4-6----------|--3-5-6--------------------|
----------------------------|-------------------------------|----------------------------|---------------------------|


  S S S S Q    S S S S Q       S S S S Q    S S S S S S S S    S S S S Q    S S S S Q     
----------------------------|---------------6---------------|----------------------------|
--------6-8--------6-8-9----|--------6-8------9-8-6-9-8-6---|--------6-8--------6-8-9----|
--5-7-8--------6-8----------|--5-7-8----------------------8-|--5-7-8--------6-8----------|
----------------------------|-------------------------------|----------------------------|
----------------------------|-------------------------------|----------------------------|
----------------------------|-------------------------------|----------------------------|

1.				  2.
  S S S S Q    S S S S S S S S      S S S S Q    S S S S S S S S    W                   W                 
---------------6-------8-6------||---------------6-------8-6-----|-------------------|-------------------|
--------6-8------9-8-6-----9-8--||--------6-8------9-8-6-----9-8-|-------------------|-------------------|
--5-7-8------------------------*||--5-7-8------------------------|-------------------|-------------------|
-------------------------------*||-------------------------------|-------------------|-------------------|
--------------------------------||-------------------------------|-------------------|-------------------|
--------------------------------||-------------------------------|-------------------|-------------------|


  W                   W                   W                   W                   W                 
-------------------|-------------------|-------------------|-------------------|-------------------|
-------------------|-------------------|-------------------|-------------------|-------------------|
-------------------|-------------------|-------------------|-------------------|-------------------|
-------------------|-------------------|-------------------|-------------------|-------------------|
-------------------|-------------------|-------------------|-------------------|-------------------|
-------------------|-------------------|-------------------|-------------------|-------------------|


  W                  
-------------------||
-------------------||
-------------------||
-------------------||
-------------------||
-------------------||

Guitar Solo

...
  1.                    2. 
     W                     H.           E   E      E.   E.   E   E.   E.   E      E.   E.   E   H         
E||--------------------||----------------------|--20--------20--19--------19--|--18--------18--17--------|
B||--------------------||------------------20--|-------20------------20-------|-------20-----------------|
G||-------------------*||----------------------|------------------------------|--------------------------|
D||-------------------*||----------------------|------------------------------|--------------------------|
A||--------------------||----------------------|------------------------------|--------------------------|
E||--------------------||----------------------|------------------------------|--------------------------|


   E.   E.   E   E.   E.   E      E.   E.   E   S  S  S  S  Q        E.   E.   E   E.   E.   E   
--16---18---16--15------------|--14--------14--15----15-17-19----|--20--------20--19--------19--|
---------------------18---16--|-------15----------15-------------|-------20------------20-------|
------------------------------|----------------------------------|------------------------------|
------------------------------|----------------------------------|------------------------------|
------------------------------|----------------------------------|------------------------------|
------------------------------|----------------------------------|------------------------------|


   E.   E.   E   H            E.   E.   E   E.   E.   E      E.   E.   E   S  S  S  S  Q      
--18---20---18--17--------|--16---18---16--15------------|--14---15---17--18----17-20-22----||
--------------------------|---------------------18---16--|-------------------19-------------||
--------------------------|------------------------------|----------------------------------||
--------------------------|------------------------------|----------------------------------||
--------------------------|------------------------------|----------------------------------||
--------------------------|------------------------------|----------------------------------||

Guitar Solo -8

...
   1. 			 2.
     W                     H.           E   E      E.   E.   E   E.   E.   E      E.   E.   E   H         
E||--------------------||----------------------|------------------------------|--------------------------|
B||--------------------||----------------------|--13--------13--12--------12--|--11--------11--10--------|
G||-------------------*||------------------12--|-------12------------12-------|-------12-----------------|
D||-------------------*||----------------------|------------------------------|--------------------------|
A||--------------------||----------------------|------------------------------|--------------------------|
E||--------------------||----------------------|------------------------------|--------------------------|


  E.   E.  E  E.   E.  E      E.  E.  E  S S S  S Q        E.   E.   E   E.   E.   E      E.   E.   E   H         
--------------------------|-----------------------7----|------------------------------|--------------------------|
--9---11---9--8-----------|-----------7--8---8-10------|--13--------13--12--------12--|--11--------11--10--------|
------------------10---8--|--11---7--------7-----------|-------12------------12-------|-------12-----------------|
--------------------------|----------------------------|------------------------------|--------------------------|
--------------------------|----------------------------|------------------------------|--------------------------|
--------------------------|----------------------------|------------------------------|--------------------------|


  E.   E.  E  E.   E.  E     E.  E.   E   S  S  S  S  Q      
--------------------------|--------------------------10----||
--9---11---9--8-----------|--7---8---10--11----10-13-------||
------------------10---8--|-----------------11-------------||
--------------------------|--------------------------------||
--------------------------|--------------------------------||
--------------------------|--------------------------------||

Rhythm Guitar 

     Q.     Q.     Q.     Q.        Q    Q         E  S S E  E  E  S S E  E     E  S S E  E  E  S S E  E   
E||------------------------------|------------||-----------------------------|----------------------------|
B||------------------------------|------------||-----------------------------|----------------------------|
G||------------------------------|------------||*----------------------------|----------------------------|
D||--3-------------1-------------|-------4----||*----------------------------|----------------------------|
A||---------3-------------1------|--4---------||-----------------------------|----------------------------|
E||------------------------------|------------||---3--3-3-3--3--3--3-3-3--3--|--3--3-3-3--3--3--3-3-3--3--|


  E  S S E  E  E  S S E  E     E  S S E  E  E  S S E  E     E  S S E  E  E  S S E  E     E  S S E  E  E  S S E  E   
----------------------------|----------------------------|----------------------------|----------------------------|
----------------------------|----------------------------|----------------------------|----------------------------|
----------------------------|----------------------------|----------------------------|----------------------------|
----------------------------|----------------------------|----------------------------|----------------------------|
----------------------------|----------------------------|----------------------------|----------------------------|
--3--3-3-3--3--3--3-3-3--3--|--3--3-3-3--3--3--3-3-3--3--|--3--3-3-3--3--3--3-3-3--3--|--3--3-3-3--3--3--3-3-3--3--|


  E  S S E  E  E  S S E  E     E  S S E  E  E  S S E  E     E  S S E  E  E  S S E  E     E  S S E  E  E  S S E  E   
----------------------------|----------------------------|----------------------------|----------------------------|
----------------------------|----------------------------|----------------------------|----------------------------|
----------------------------|----------------------------|----------------------------|----------------------------|
----------------------------|----------------------------|--5--5-5-5--5--6--6-6-6--6--|--5--5-5-5--5--8--8-8-6--6--|
----------------------------|---------------1--1-1-2--2--|--3--3-3-3--3--4--4-4-4--4--|--3--3-3-3--3--6--6-6-4--4--|
--3--3-3-3--3--3--3-3-3--3--|--3--3-3-4--4---------------|----------------------------|----------------------------|


  E  S S E  E  E  S S E  E     E  S S E  E  E  S S E  E     E  S S E  E  E  S S E  E     E  S S E  E  E  S S E  E   
----------------------------|----------------------------|----------------------------|----------------------------|
----------------------------|----------------------------|----------------------------|----------------------------|
----------------------------|----------------------------|----------------------------|----------------------------|
--5--5-5-5--5--6--6-6-6--6--|--5--5-5-5--5--8--8-8-6--6--|--5--5-5-5--5--6--6-6-6--6--|--5--5-5-5--5--8--8-8-6--6--|
--3--3-3-3--3--4--4-4-4--4--|--3--3-3-3--3--6--6-6-4--4--|--3--3-3-3--3--4--4-4-4--4--|--3--3-3-3--3--6--6-6-4--4--|
----------------------------|----------------------------|----------------------------|----------------------------|

                            1.                                2.
  E  S S E  E  E  S S E  E     E  S S E  E  E  S S  E   E       E  S S E  E  E  S S  E   E   
----------------------------|-------------------------------||------------------------------|
----------------------------|-------------------------------||------------------------------|
----------------------------|------------------------------*||------------------------------|
--5--5-5-5--5--6--6-6-6--6--|--5--5-5-5--5--8--8-8-10--10--*||--5--5-5-5--5--8--8-8-10--10--|
--3--3-3-3--3--4--4-4-4--4--|--3--3-3-3--3--6--6-6--8---8---||--3--3-3-3--3--6--6-6--8---8--|
----------------------------|-------------------------------||------------------------------|


   E   S  S  E   E   E   S  S  E   E     E  S S E  E  E  S S E  E     E  S S E  E  E  S S E  E   
--------------------------------------|----------------------------|----------------------------|
--------------------------------------|----------------------------|----------------------------|
--------------------------------------|----------------------------|----------------------------|
--10--10-10-10--10---9---9--9--9---9--|--8--8-8-8--8--7--7-7-7--7--|--6--6-6-6--6--5--5-5-5--5--|
--10--10-10-10--10--10--10-10-10--10--|--8--8-8-8--8--8--8-8-8--8--|--6--6-6-6--6--6--6-6-6--6--|
--------------------------------------|----------------------------|----------------------------|


  E  S S E  E  E  S S E  E     E  S S E  E  E  S S E  E     E  S S E  E  E  S S E  E     E  S S E  E  E  S S E  E   
----------------------------|----------------------------|----------------------------|----------------------------|
----------------------------|----------------------------|----------------------------|----------------------------|
----------------------------|--5--5-5-5--5--4--4-4-4--4--|--3--3-3-3--3--2--2-2-2--2--|----------------------------|
--4--4-4-4--4--5--5-5-5--5--|--5--5-5-5--5--5--5-5-5--5--|--3--3-3-3--3--3--3-3-3--3--|--6--6-6-6--6--5--5-5-5--5--|
--5--5-5-5--5--5--5-5-5--5--|----------------------------|----------------------------|--6--6-6-6--6--6--6-6-6--6--|
----------------------------|----------------------------|----------------------------|----------------------------|


  E  S S E  E  E  S S E  E    
----------------------------||
----------------------------||
----------------------7--7--||
--4--4-4-4--4--7--7-7-7--7--||
--5--5-5-5--5--5--5-5-------||
----------------------------||

Bass

     S S S S S S S S S S S S S S S S S S S S S S S S    S S S S S S S S      S S S S S S S S S S S S S S S S  
G||--------------------------------------------------|------------------||-----------------------------------|
D||--3-3-3-3-3-3-------------1-1-1-1-1-1-------------|----------4-4-4-4-||*----------------------------------|
A||--------------3-3-3-3-3-3-------------1-1-1-1-1-1-|--4-4-4-4---------||*----------------------------------|
E||--------------------------------------------------|------------------||---3-3-3-3-3-3-3-3-3-3-3-3-3-3-3-3-|


  S S S S S S S S S S S S S S S S    S S S S S S S S S S S S S S S S    S S S S S S S S S S S S S S S S  
----------------------------------|----------------------------------|----------------------------------|
----------------------------------|----------------------------------|----------------------------------|
----------------------------------|----------------------------------|----------------------------------|
--3-3-3-3-3-3-3-3-3-3-3-3-3-3-3-3-|--3-3-3-3-3-3-3-3-3-3-3-3-3-3-3-3-|--3-3-3-3-3-3-3-3-3-3-3-3-3-3-3-3-|


  S S S S S S S S S S S S S S S S    S S S S S S S S S S S S S S S S    S S S S S S S S S S S S S S S S  
----------------------------------|----------------------------------|----------------------------------|
----------------------------------|----------------------------------|----------------------------------|
----------------------------------|----------------------------------|----------------------------------|
--3-3-3-3-3-3-3-3-3-3-3-3-3-3-3-3-|--3-3-3-3-3-3-3-3-3-3-3-3-3-3-3-3-|--3-3-3-3-3-3-3-3-3-3-3-3-3-3-3-3-|


  S S S S S S S S S S S S S S S S    S S S S S S S S S S S S S S S S    S S S S S S S S S S S S S S S S  
----------------------------------|----------------------------------|----------------------------------|
----------------------------------|----------------------------------|----------------------------------|
------------------1-1-1-1-2-2-2-2-|--3-3-3-3-3-3-3-3-4-4-4-4-4-4-4-4-|--3-3-3-3-3-3-3-3-6-6-6-6-4-4-4-4-|
--3-3-3-3-4-4-4-4-----------------|----------------------------------|----------------------------------|


  S S S S S S S S S S S S S S S S    S S S S S S S S S S S S S S S S    S S S S S S S S S S S S S S S S  
----------------------------------|----------------------------------|----------------------------------|
----------------------------------|----------------------------------|----------------------------------|
--3-3-3-3-3-3-3-3-4-4-4-4-4-4-4-4-|--3-3-3-3-3-3-3-3-6-6-6-6-4-4-4-4-|--3-3-3-3-3-3-3-3-4-4-4-4-4-4-4-4-|
----------------------------------|----------------------------------|----------------------------------|
                                                                      1.
  S S S S S S S S S S S S S S S S    S S S S S S S S S S S S S S S S    S S S S S S S S S S S S S S S S    
----------------------------------|----------------------------------|-----------------------------------||
----------------------------------|----------------------------------|----------------------------------*||
--3-3-3-3-3-3-3-3-6-6-6-6-4-4-4-4-|--3-3-3-3-3-3-3-3-4-4-4-4-4-4-4-4-|--3-3-3-3-3-3-3-3-6-6-6-6-4-4-4-4-*||
----------------------------------|----------------------------------|-----------------------------------||

2.
  S S S S S S S S S S S S S S S S    S S S S S S S S S S S S S S S S    S S S S S S S S S S S S S S S S  
----------------------------------|----------------------------------|----------------------------------|
--------------------------3-3-3-3-|----------------------------------|----------------------------------|
--3-3-3-3-3-3-3-3-6-6-6-6---------|--3-3-3-3-3-3-3-3-2-2-2-2-2-2-2-2-|--1-1-1-1-1-1-1-1-0-0-0-0-0-0-0-0-|
----------------------------------|----------------------------------|----------------------------------|


  S S S S S S S S S S S S S S S S    S S S S S S S S S S S S S S S S    S S S S S S S S S S S S S S S S  
----------------------------------|----------------------------------|----------------------------------|
----------------------------------|----------------------------------|----------------------------------|
----------------------------------|----------------------------------|--3-3-3-3-3-3-3-3-2-2-2-2-2-2-2-2-|
--4-4-4-4-4-4-4-4-3-3-3-3-3-3-3-3-|--2-2-2-2-2-2-2-2-3-3-3-3-3-3-3-3-|----------------------------------|


  S S S S S S S S S S S S S S S S    S S S S S S S S S S S S S S S S    S S S S S S S S S S S S S S S S   
----------------------------------|----------------------------------|----------------------------------||
----------------------------------|----------------------------------|--------------------------0-0-0-0-||
--1-1-1-1-1-1-1-1-0-0-0-0-0-0-0-0-|----------------------------------|------------------0-0-0-0---------||
----------------------------------|--4-4-4-4-4-4-4-4-3-3-3-3-3-3-3-3-|--2-2-2-2-2-2-2-2-----------------||


Halo + Pad

     Q.     Q.     Q.     Q.        Q    Q         H        H           Q    Q    Q    Q       H        H         
E||------------------------------|------------||---------------------|----------------------|--------------------|
B||------------------------------|------------||------------0--------|----------------------|-----------0--------|
G||------------------------------|------------||*--3--------1--------|--0----3----1---------|--3--------1--------|
D||--3-------------1-------------|-------4----||*--5-----------------|-----------------3----|--5-----------------|
A||---------3-------------1------|--4---------||---------------------|----------------------|--------------------|
E||------------------------------|------------||---------------------|----------------------|--------------------|


  Q    Q    Q    Q       H        H           Q    Q    Q    Q       H        H           Q    Q    Q    Q     
----------------------|--------------------|----------------------|--------------------|----------------------|
----------------------|-----------0--------|----------------------|-----------0--------|-----------------0----|
--0----3----1---------|--3--------1--------|--0----3----1---------|--3--------1--------|--0----1----3---------|
-----------------3----|--5-----------------|-----------------3----|--5-----------------|----------------------|
----------------------|--------------------|----------------------|--------------------|----------------------|
----------------------|--------------------|----------------------|--------------------|----------------------|


  H        H           H        Q    Q       H        H           H        Q    Q       H        H         
--------------------|---------------------|--------------------|---------------------|--------------------|
--------------------|---------------------|--------------------|---------------------|--------------------|
--0--------1--------|--0--------3----1----|--0--------1--------|--0--------3----1----|--0--------1--------|
--------------------|---------------------|--------------------|---------------------|--------------------|
--------------------|---------------------|--------------------|---------------------|--------------------|
--------------------|---------------------|--------------------|---------------------|--------------------|

                                           1.                      2.
  H        Q    Q       H        H           H        Q    Q         H        Q    Q       H        H         
---------------------|--------------------|----------------------||---------------------|--------------------|
---------------------|--------------------|----------------1-----||----------------1----|--4--------3--------|
--0--------3----1----|--0--------1--------|--0--------3---------*||--0--------3---------|--5--------4--------|
---------------------|--------------------|---------------------*||---------------------|--5--------5--------|
---------------------|--------------------|----------------------||---------------------|--------------------|
---------------------|--------------------|----------------------||---------------------|--------------------|


  H        H           H        H           H        H           H        H           H        H         
--1--------1--------|--4--------3--------|--2--------3--------|--------------------|--1--------1--------|
--1--------1--------|--4--------4--------|--3--------3--------|--4--------3--------|--1--------1--------|
--3--------2--------|--5--------5--------|--2--------4--------|--5--------4--------|--3--------2--------|
--------------------|--------------------|--------------------|--5--------5--------|--------------------|
--------------------|--------------------|--------------------|--------------------|--------------------|
--------------------|--------------------|--------------------|--------------------|--------------------|


  H        H           H        Q     Q      
--4--------3--------|--2--------5----10----||
--4--------4--------|--3--------7----10----||
--5--------5--------|--2--------7----11----||
--------------------|----------------------||
--------------------|----------------------||
--------------------|----------------------||


Organ + Pad (Capo 12)

                       E  E  S S E  H           Q     Q    Q    Q       E  E  S S E  H           Q     Q    Q    Q     
E||-------|-------||-------------------------|-----------------------|------------------------|-----------------------|
B||-------|-------||------8--8-8----9--------|--8----11----9----6----|-----8--8-8----9--------|--8----11----9----6----|
G||-------|-------||*------------------------|-----------------------|------------------------|-----------------------|
D||-------|-------||*-----5--5-5----6--------|--5-----8----6----3----|-----5--5-5----6--------|--5-----8----6----3----|
A||-------|-------||------5--5-5----6--------|--5-----8----6----3----|-----5--5-5----6--------|--5-----8----6----3----|
E||-------|-------||-------------------------|-----------------------|------------------------|-----------------------|


  E  E  S S E  H           Q     Q    Q    Q       E  E  S S E  H           Q    Q     Q     Q       H        H         
------------------------|-----------------------|------------------------|------------------------|--------------------|
-----8--8-8----9--------|--8----11----9----6----|-----8--8-8----9--------|--8----9----11----12----|--------------------|
------------------------|-----------------------|------------------------|------------------------|--------------------|
-----5--5-5----6--------|--5-----8----6----3----|-----5--5-5----6--------|--5----6-----8-----9----|--5--------6--------|
-----5--5-5----6--------|--5-----8----6----3----|-----5--5-5----6--------|--5----6-----8-----9----|--3--------4--------|
------------------------|-----------------------|------------------------|------------------------|--------------------|


  H        Q    Q       H        H           H        Q    Q       H        H           H        Q    Q     
---------------------|--------------------|---------------------|--------------------|---------------------|
---------------------|--------------------|---------------------|--------------------|---------------------|
---------------------|--------------------|---------------------|--------------------|---------------------|
--5--------8----6----|--5--------6--------|--5--------8----6----|--5--------6--------|--5--------8----6----|
--3--------6----4----|--3--------4--------|--3--------6----4----|--3--------4--------|--3--------6----4----|
---------------------|--------------------|---------------------|--------------------|---------------------|

                     1.                       2.
  H        H           H        Q     Q         H        Q     Q        H         H            H         H         
--------------------|-----------------------||----------------------|--11--------10--------|--13--------13--------|
--------------------|-----------------------||----------------------|--13--------12--------|--13--------13--------|
--------------------|----------------------*||----------------------|--12--------12--------|--15--------14--------|
--5--------6--------|--5--------8----10----*||--5--------8----10----|----------------------|----------------------|
--3--------4--------|--3--------6-----8-----||--3--------6-----8----|----------------------|----------------------|
--------------------|-----------------------||----------------------|----------------------|----------------------|


   H         H            H         H            H         H            H         H            H         H         
--16--------15--------|--14--------15--------|----------------------|--13--------13--------|--16--------15--------|
--16--------16--------|--15--------15--------|--16--------15--------|--13--------13--------|--16--------16--------|
--17--------17--------|--14--------16--------|--17--------16--------|--15--------14--------|--17--------17--------|
----------------------|----------------------|--17--------17--------|----------------------|----------------------|
----------------------|----------------------|----------------------|----------------------|----------------------|
----------------------|----------------------|----------------------|----------------------|----------------------|


   H         Q     Q      
--14--------17----22----||
--15--------19----22----||
--14--------19----23----||
------------------------||
------------------------||
------------------------||



Duration Legend
---------------
W - whole
H - half
Q - quarter
E - 8th
S - 16th
T - 32nd
X - 64th
. - note dotted
|-n-|  - n-tuplets


Tablature Legend
----------------
L - tied note
^ - brush up
v - brush down

        
Comments

No comments yet