Gametabs
Home
Tabs
Random

Opening Stage Zero

Average rating: 5.000

1 ratings

Composer:

Tabber:

Style:

Instrument:

Created: May 09, 2017 at 12:00 AM

            Opening Stage Zero                  
Zero's Intro Stage
Megaman X5
Naoto Tanaka, Naoya Kamisaka & Takuya Miyawaki                        
JordanVS

Tempo : 150 ~ 4/4 


Lead

     Q       E  E  E  Q    E  E  E     E  E  E  H        E     E  E  E  Q    E  E  E   
E||-------|-----------6----------4--|--L--------1-----------|-----------6----------4--|
B||-------|--------6----------4-----|-----------------------|--------6----------------|
G||-------|-----8----------6--------|-----1--3--------------|-----8----------5--6-----|
D||-------|-------------------------|-----------------------|-------------------------|
A||-------|-------------------------|-----------------------|-------------------------|
E||-------|-------------------------|-----------------------|-------------------------|


  H.           E  E     E  E  E  Q    E  E  E     E  E  E  H        E     E  E  E  Q    E  E  E   
--L------------L-----|-----------6----------4--|--L--------1-----------|-----------6----------4--|
---------------------|--------6----------4-----|-----------------------|--------6----------------|
---------------------|-----8----------6--------|-----1--3--------------|-----8----------5--6-----|
---------------------|-------------------------|-----------------------|-------------------------|
---------------------|-------------------------|-----------------------|-------------------------|
---------------------|-------------------------|-----------------------|-------------------------|


  H.           E  S S      E.  E.  E  H           Q.     E  E.  E.  E     H.           E  S S  
--L-------------------||-----------------------|-----------------------|----------------------|
----------------------||-----------------------|-----------------------|----------------------|
------------------5-7-||*--8---7---5-----------|----------------3------|------------------5-7-|
----------------------||*-------------5--------|--L------1--3-------5--|--L------------L------|
----------------------||-----------------------|-----------------------|----------------------|
----------------------||-----------------------|-----------------------|----------------------|


  E.  E.  E  H           Q.     E  E.  E.  E     H.           Q       H        H         
----------------------|-----------------------|--------------------|--------------------|
----------------------|-----------------------|--------------------|--------------------|
--8---7---5-----------|----------------3---5--|--L-----------------|--5--------7--------|
-------------5--------|--L------1--3----------|--------------------|--------------------|
----------------------|-----------------------|--------------------|--------------------|
----------------------|-----------------------|--------------------|--------------------|


  |--3--|                                                                                 
  E  E  E  Q.     Q    E     Q.     E  H           W                   H        H         
--------------------------|---------------------|-------------------|--------------------|
-----6--8-----------------|---------------------|-------------------|--------------------|
--8--------8------7----5--|--5------3--L--------|--L----------------|--5--------7--------|
--------------------------|---------------------|-------------------|--------------------|
--------------------------|---------------------|-------------------|--------------------|
--------------------------|---------------------|-------------------|--------------------|


  |--3--|                                                                                       
  E  E  E  Q.     E  E  E     Q.     E  H           H.           E  S S    E.  E.  E  H         
---------------------------|---------------------|--L-------------------|----------------------|
-----6--8------------------|--6------8--L--------|----------------------|----------------------|
--8--------8------5--7--8--|---------------------|------------------5-7-|--8---7---5-----------|
---------------------------|---------------------|----------------------|-------------5--------|
---------------------------|---------------------|----------------------|----------------------|
---------------------------|---------------------|----------------------|----------------------|


  Q.     E  E.  E.  E     H.           E   S S    E.   E.  E   H           Q.      E   E.  E.  E   
-----------------------|-----------------------|------------------------|-------------------------|
-----------------------|-----------------------|--8---------------------|-------------------------|
----------------3------|---------------------8-|------10---8------------|------------------7---8--|
--L------1--3-------5--|--L---------------10---|--------------10--------|--L------10--10----------|
-----------------------|-----------------------|------------------------|-------------------------|
-----------------------|-----------------------|------------------------|-------------------------|


  H.           E  E     E  E  E  Q    E  E  E     E  E  E  H        E     E  E  E  Q    E  E  E   
---------------------|-------------------------|-----------------------|-------------------------|
---------------------|--------6--7-------------|-----------------------|--------6--7-------------|
--L------------L-----|-----8-------------6--8--|--L--------6-----------|-----8-------------6--8--|
---------------------|----------------8--------|-----4--6--------------|----------------8--------|
---------------------|-------------------------|-----------------------|-------------------------|
---------------------|-------------------------|-----------------------|-------------------------|


  H.           Q       E  E  E  Q    E  E  E     E  E  E  H        E     E  E  E  Q     E   E   E   
--------------------|-----------6----------4--|--L--------------------|-----------6------------11--|
--------------------|--------7----------4-----|-----------7-----------|--------7-----------11------|
--L-----------------|-----8----------6--------|--------6--------------|-----8----------13----------|
--------------------|-------------------------|-----8-----------------|----------------------------|
--------------------|-------------------------|-----------------------|----------------------------|
--------------------|-------------------------|-----------------------|----------------------------|


  H        H           S S S S S S S S S S S S S S S S    S S S S S S S S S S S  S S  S S S  
--L-----------------|----------------------------------|---------------------------7----7-9-|
--------------------|----------------------7-----------|--------------7---7---7-10---10-----|
--------------------|--------6-7-9-7-6-7-9---6-------6-|--7-9-7-6-7-9---9---9---------------|
--------------------|--9-7-9-------------------9-7-9---|------------------------------------|
--------------------|----------------------------------|------------------------------------|
--------------------|----------------------------------|------------------------------------|


   H.           E  S  S    H.           Q       S S S S S S S S S S S S S S S S  
--10------------L--9-10-|--9-----------------|----------------------------------|
------------------------|--------------------|----------------------7-----------|
------------------------|--------------------|--------6-7-9-7-6-7-9---6-----9-6-|
------------------------|--------------------|--9-7-9-------------------9-7-----|
------------------------|--------------------|----------------------------------|
------------------------|--------------------|----------------------------------|


  S S S S S S S  S S  S S S  S S  S  S     H.           E   S  S     W                 
-------------------7----7-9-10-9-10-12-|--14------------L--12-14-|--12----------------|
--------------7-10---10----------------|-------------------------|--------------------|
--7-9-7-6-7-9--------------------------|-------------------------|--------------------|
---------------------------------------|-------------------------|--------------------|
---------------------------------------|-------------------------|--------------------|
---------------------------------------|-------------------------|--------------------|


  H        Q.     S S  2x
--L--------------------||
-----------------------||
------------------5-7-*||
----------------------*||
-----------------------||
-----------------------||




Bass

     E  E     Q.     E  H           Q.     E  Q    E  E     Q.     E  H         
G||--------|---------------------|-----------------------|---------------------|
D||--------|---------------------|-----------------------|---------------------|
A||--1--1--|--1------1--1--------|--1------1--1----1--1--|--1------1--1--------|
E||--------|---------------------|-----------------------|---------------------|


  Q.     E  E  E  E  E     Q.     E  H           Q.     E  Q    E  E     E  E  E  E  E  E  E  E   
------------------------|---------------------|-----------------------|--------------------------|
------------------------|---------------------|-----------------------|--------------------------|
--1------1--1--1--1--1--|--1------1--1--------|--1------1--1----1--1--|--1--1--1--1--1--1--1--1--|
------------------------|---------------------|-----------------------|--------------------------|


  E  E  E  E  E  E  E  E       E  S S E  E  E  S S E  E     E  S S E  E  E  S S E  E   
--------------------------||-----------------------------|----------------------------|
--------------------------||*----------------------------|----------------------------|
--1--1--1--1--1--1--1--1--||*--3--3-3-3--3--3--3-3-3--3--|--3--3-3-3--3--3--3-3-3--3--|
--------------------------||-----------------------------|----------------------------|


  E  S S E  E  E  E  E  E     E  S S E  E  E  S S E  E     E  S S E  E  E  S S E  E   
---------------------------|----------------------------|----------------------------|
------------------3--1--0--|----------------------------|----------------------------|
--3--3-3-3--1--3-----------|--3--3-3-3--3--3--3-3-3--3--|--3--3-3-3--3--3--3-3-3--3--|
---------------------------|----------------------------|----------------------------|


  E  S S E  E  E  E  E  E     E  E  E  E  E  E  E  E     E  E  E  E  E  E  E  E   
---------------------------|--------------------------|--------------------------|
------------0--1--0--------|--------------------------|--------------------------|
--3--3-3-3-----------3--1--|--------------------------|--------------------------|
---------------------------|--4--4--4--4--4--4--4--4--|--4--4--4--4--4--4--4--4--|


  E  E  E  E  E  E  E  E     E  E  E  E  E  E  E  E     E  E  E  E  E  E  E  E   
--------------------------|--------------------------|--------------------------|
--------------------------|--------------0-----0--1--|--3--3--3--3--3--3--3--3--|
--------------------------|--------1--3-----3--------|--------------------------|
--3--3--3--3--3--3--3--3--|--3--3--------------------|--------------------------|


  E  E  E  E  E  E  E  E     E  E  E  E  E  E  E  E     E  E  E  E  E  E  E  E   
--------------------------|--------------------------|--------------------------|
--3--3--3--3--3--3--3--3--|--1--1--1--1--1--1--1--1--|--1--1--1--1--1--1--1--1--|
--------------------------|--------------------------|--------------------------|
--------------------------|--------------------------|--------------------------|


  E  S S E  E  E  S S E  E     E  S S E  E  E  S S E  E     E  S S E  E  E  E  E  E   
----------------------------|----------------------------|---------------------------|
----------------------------|----------------------------|------------------3--1--0--|
--3--3-3-3--3--3--3-3-3--3--|--3--3-3-3--3--3--3-3-3--3--|--3--3-3-3--1--3-----------|
----------------------------|----------------------------|---------------------------|


  E  S S E  E  E  S S E  E     E  S S E  E  E  S S E  E     E  S S E  E  E  E  E  E   
----------------------------|----------------------------|---------------------------|
----------------------------|----------------------------|------------------0--1--3--|
--3--3-3-3--3--3--3-3-3--3--|--3--3-3-3--3--3--3-3-3--3--|--3--3-3-3--1--3-----------|
----------------------------|----------------------------|---------------------------|


  E  Q    E  E  Q    E     E  Q    E  E  Q    E     E  Q    E  E  Q    E   
------------------------|------------------------|------------------------|
--1--1----1--1--1----1--|--1--1----1--1----------|--1--1----1--1--1----1--|
------------------------|----------------1----1--|------------------------|
------------------------|------------------------|------------------------|


  E  Q    E  E  E  E  E     E  Q    E  E  Q    E     E  Q    E  E  Q    E   
----------------------1--|------------------------|------------------------|
--1--1----1--1--4--3-----|--1--1----1--1--1----1--|--1--1----1--1--4----4--|
-------------------------|------------------------|------------------------|
-------------------------|------------------------|------------------------|


  E  Q    E  E  Q    E     E  Q    E  E  E  E  E     E  E  E  E  E  E  E  E   
------------------------|-------------------------|--------------------------|
--1--1----1--1--1----1--|--1--1----1--1--1--------|--------------------------|
------------------------|-------------------4--4--|--2--2--2--2--2--2--2--2--|
------------------------|-------------------------|--------------------------|


  E  E  E  E  E  E  E  E     E  Q    E  E  Q    E     E  Q    E  E  Q    E   
--------------------------|------------------------|------------------------|
--------------------------|------------------------|------------------------|
--2--2--2--2--2--2--0--0--|------------------------|--0--0----0--0--0----0--|
--------------------------|--3--3----3--3--3----3--|------------------------|


  E  E  E  E  E  E  E  E     E  E  E  E  E  E  E  E     E  Q    E  E  Q    E   
--------------------------|--------------------------|------------------------|
--------------------------|--------------------------|------------------------|
--2--2--2--2--2--2--2--2--|--2--2--2--2--2--2--0--0--|------------------------|
--------------------------|--------------------------|--3--3----3--3--3----3--|


  E  Q    E  E  Q    E     E  E  E  E  H         2x
------------------------|------------------------||
------------------------|-----------0--2--------*||
--0--0----0--0--0----0--|--0--2--4--------------*||
------------------------|------------------------||




Rhythm Guitar

     PM PM                                     PM PM                               PM PM PM PM PM  
     E  E     W                   H.           E  E     W                   Q.     E  E  E  E  E   
E||--------|-------------------|---------------------|-------------------|------------------------|
B||--------|-------------------|---------------------|-------------------|------------------------|
G||--------|-------------------|---------------------|-------------------|------------------------|
D||--------|-------------------|---------------------|-------------------|------------------------|
A||--1--1--|--1----------------|--L------------1--1--|--1----------------|--L------1--1--1--1--1--|
E||--------|-------------------|---------------------|-------------------|------------------------|


                                   PM PM    PM PM PM PM PM PM PM PM  
  W                   H.           E  E     E  E  E  E  E  E  E  E   
-------------------|---------------------|--------------------------|
-------------------|---------------------|--------------------------|
-------------------|---------------------|--------------------------|
-------------------|---------------------|--------------------------|
--1----------------|--L------------1--1--|--1--1--1--1--1--1--1--1--|
-------------------|---------------------|--------------------------|


  PM PM PM PM PM PM PM PM PM PM PM PM      PM PM PM PM PM PM PM PM PM PM PM PM  
  E  S  S  E  S  S  E  S  S  E  S  S       E  S  S  E  S  S  E  S  S  E  S  S   
--------------------------------------||---------------------------------------|
--------------------------------------||---------------------------------------|
--------------------------------------||*--------------------------------------|
--------------------------------------||*--------------------------------------|
--1--1--1--1--1--1--1--1--1--1--1--1--||---3--3--3--3--3--3--3--3--3--3--3--3--|
--------------------------------------||---------------------------------------|


  PM PM PM PM PM PM PM PM PM PM PM PM    PM PM PM PM PM PM PM PM PM PM PM PM  
  E  S  S  E  S  S  E  S  S  E  S  S     E  S  S  E  S  S  E  S  S  E  S  S   
--------------------------------------|--------------------------------------|
--------------------------------------|--------------------------------------|
--------------------------------------|--------------------------------------|
--------------------------------------|--------------------------------------|
--3--3--3--3--3--3--3--3--3--3--3--3--|--3--3--3--3--3--3--3--3--3--3--3--3--|
--------------------------------------|--------------------------------------|


  PM PM PM PM PM PM PM PM PM PM PM PM    PM PM PM PM PM PM PM PM PM PM PM PM  
  E  S  S  E  S  S  E  S  S  E  S  S     E  S  S  E  S  S  E  S  S  E  S  S   
--------------------------------------|--------------------------------------|
--------------------------------------|--------------------------------------|
--------------------------------------|--------------------------------------|
--------------------------------------|--------------------------------------|
--3--3--3--3--3--3--3--3--3--3--3--3--|--3--3--3--3--3--3--3--3--3--3--3--3--|
--------------------------------------|--------------------------------------|


  PM PM PM PM PM PM PM PM PM PM PM PM                                           
  E  S  S  E  S  S  E  S  S  E  S  S     H        H           W                 
--------------------------------------|--------------------|-------------------|
--------------------------------------|--------------------|-------------------|
--------------------------------------|--------------------|-------------------|
--------------------------------------|--------------------|-------------------|
--3--3--3--3--3--3--3--3--3--3--3--3--|--------------------|-------------------|
--------------------------------------|--4--------4--------|--4----------------|


  H.           E  E     W                   H        H           W                 
---------------------|-------------------|--------------------|-------------------|
---------------------|-------------------|--------------------|-------------------|
---------------------|-------------------|--------------------|-------------------|
---------------------|-------------------|--------------------|-------------------|
--1------------L--1--|--1----------------|--------------------|-------------------|
---------------------|-------------------|--4--------4--------|--4----------------|


              PM PM PM    PM PM PM PM PM PM PM PM PM    PM PM PM PM PM PM PM PM PM PM PM PM  
  H        E  E  E  E     E  E  E  E  S  S  E  E  E     E  S  S  E  S  S  E  S  S  E  S  S   
-----------------------|-----------------------------|--------------------------------------|
-----------------------|-----------------------------|--------------------------------------|
-----------------------|-----------------------------|--------------------------------------|
-----------------------|-----------------------------|--------------------------------------|
--1--------L--1--1--1--|--1--1--1--1--1--1--1--1--1--|--3--3--3--3--3--3--3--3--3--3--3--3--|
-----------------------|-----------------------------|--------------------------------------|


  PM PM PM PM PM PM PM PM PM PM PM PM    PM PM PM PM PM PM PM PM PM PM PM PM  
  E  S  S  E  S  S  E  S  S  E  S  S     E  S  S  E  S  S  E  S  S  E  S  S   
--------------------------------------|--------------------------------------|
--------------------------------------|--------------------------------------|
--------------------------------------|--------------------------------------|
--------------------------------------|--------------------------------------|
--3--3--3--3--3--3--3--3--3--3--3--3--|--3--3--3--3--3--3--3--3--3--3--3--3--|
--------------------------------------|--------------------------------------|


  PM PM PM PM PM PM PM PM PM PM PM PM    PM PM PM PM PM PM PM PM PM PM PM PM  
  E  S  S  E  S  S  E  S  S  E  S  S     E  S  S  E  S  S  E  S  S  E  S  S   
--------------------------------------|--------------------------------------|
--------------------------------------|--------------------------------------|
--------------------------------------|--------------------------------------|
--------------------------------------|--------------------------------------|
--3--3--3--3--3--3--3--3--3--3--3--3--|--3--3--3--3--3--3--3--3--3--3--3--3--|
--------------------------------------|--------------------------------------|


  PM PM PM PM                                                                            
  E  S  S  E  Q.     Q       W                   H.           E  E     W                 
--------------------------|-------------------|---------------------|-------------------|
--------------------------|-------------------|---------------------|-------------------|
--------------------------|-------------------|---------------------|-------------------|
--------------------------|-------------------|---------------------|-------------------|
--3--3--3--3--6------6----|--6----------------|--L------------L--6--|--6----------------|
--------------------------|-------------------|---------------------|-------------------|


         PM PM PM PM PM                                                                
  Q.     E  E  E  E  E     W                   H.           E  E     W                 
------------------------|-------------------|---------------------|-------------------|
------------------------|-------------------|---------------------|-------------------|
------------------------|-------------------|---------------------|-------------------|
------------------------|-------------------|---------------------|-------------------|
--L------6--6--6--6--6--|--6----------------|--L------------L--6--|--6----------------|
------------------------|-------------------|---------------------|-------------------|


         PM PM PM PM PM    PM PM PM PM PM PM PM PM PM PM PM PM    PM PM PM PM PM PM            
  Q.     E  E  E  E  E     E  S  S  E  S  S  E  S  S  E  S  S     E  S  S  E  S  S  Q    Q     
------------------------|--------------------------------------|------------------------------|
------------------------|--------------------------------------|------------------------------|
------------------------|--------------------------------------|------------------------------|
------------------------|--------------------------------------|------------------------------|
--L------6--6--6--4--4--|--2--2--2--2--2--2--2--2--2--2--2--2--|--2--2--2--2--2--2--2----0----|
------------------------|--------------------------------------|------------------------------|


         PM PM PM PM PM           PM PM PM PM PM    PM PM PM PM PM PM PM PM PM PM PM PM  
  Q.     E  E  E  E  E     Q.     E  E  E  E  E     E  S  S  E  S  S  E  S  S  E  S  S   
------------------------|------------------------|--------------------------------------|
------------------------|------------------------|--------------------------------------|
------------------------|------------------------|--------------------------------------|
------------------------|------------------------|--------------------------------------|
------------------------|--0------0--0--0--0--0--|--2--2--2--2--2--2--2--2--2--2--2--2--|
--3------3--3--3--3--3--|------------------------|--------------------------------------|


  PM PM PM PM PM PM                     PM PM PM PM PM           PM PM PM PM PM  
  E  S  S  E  S  S  Q    Q       Q.     E  E  E  E  E     Q.     E  E  E  E  E   
------------------------------|------------------------|------------------------|
------------------------------|------------------------|------------------------|
------------------------------|------------------------|------------------------|
------------------------------|------------------------|------------------------|
--2--2--2--2--2--2--2----0----|------------------------|--0------0--0--0--0--0--|
------------------------------|--3------3--3--3--3--3--|------------------------|


  PM PM PM PM PM PM          
  E  E  E  E  E  E  E  E     
---------------------------||
---------------------------||
--------------------------*||
--------------------------*||
--0--0--0--0--0--0--0------||
---------------------------||




Extra

     Q       E  E   E   Q    E  E  E     E  E  E   H        E     E  E   E   Q    E  E  E   
E||-------|---------------------------|------------------------|---------------------------|
B||-------|------------11----------9--|--L---------------------|------------11----------9--|
G||-------|-----8--10--------6--8-----|-----------10-----------|-----8--10--------5--6-----|
D||-------|-------------8----------6--|--L--6--8---------------|-------------8----------6--|
A||-------|-----6---8--------4--6-----|------------8-----------|-----6---8--------3--4-----|
E||-------|---------------------------|-----4--6---------------|---------------------------|


  H.           E  E     E  E   E   Q    E  E  E     E  E  E   H        E   
---------------------|---------------------------|------------------------|
--L------------L-----|------------11----------9--|--L---------------------|
---------------------|-----8--10--------6--8-----|-----------10-----------|
--L------------L-----|-------------8----------6--|--L--6--8---------------|
---------------------|-----6---8--------4--6-----|------------8-----------|
---------------------|---------------------------|-----4--6---------------|


  E  E   E   Q    E  E  E     H.           E  S S      E.  E.  H        E     Q.     E  E.  E.  E   
---------------------------|----------------------||-----------------------|-----------------------|
------------11----------9--|--L-------------------||-----------------------|-----------------------|
-----8--10--------5--6-----|--------------------3-||*--5---3---------------|----------------3------|
-------------8----------6--|--L---------------5---||*----------5--------L--|--L------1--3-------5--|
-----6---8--------3--4-----|----------------------||-----------------------|-----------------------|
---------------------------|----------------------||-----------------------|-----------------------|


  H.           E  S S    E.  E.  E  H           Q.     E  E.  E.  E     H.           Q     
----------------------|----------------------|-----------------------|--------------------|
----------------------|----------------------|-----------------------|--------------------|
--------------------3-|--5---3---------------|----------------3------|--------------------|
--L------------L--5---|----------5--L--------|--L------1--3-------5--|--L-----------------|
----------------------|----------------------|-----------------------|--------------------|
----------------------|----------------------|-----------------------|--------------------|


  H        H           H.           E  E     H         E  Q    E     H.           Q     
--------------------|---------------------|-----------10--6-------|--------------------|
--------------------|---------------------|--------------------6--|--L-----------------|
--------------------|---------------------|--3---------7--3-------|--------------------|
--6--------6--------|--6------------L-----|--------------------3--|--L-----------------|
--------------------|---------------------|-----------------------|--------------------|
--------------------|---------------------|-----------------------|--------------------|


  H        H           H.           E  E     H         E  Q    E     H.           E  S S  
--------------------|---------------------|-----------10--6-------|----------------------|
--------------------|---------------------|--------------------6--|--L-------------------|
--------------------|---------------------|--3---------7--3-------|--------------------3-|
--6--------6--------|--6------------L-----|--------------------3--|--L---------------5---|
--------------------|---------------------|-----------------------|----------------------|
--------------------|---------------------|-----------------------|----------------------|


  E.  E.  H        E     Q.     E  E.  E.  E     H.           E  S S    E.  E.  E  H         
----------------------|-----------------------|----------------------|----------------------|
----------------------|-----------------------|----------------------|----------------------|
--5---3---------------|----------------3------|--------------------5-|--8---7---5-----------|
----------5--------L--|--L------1--3-------5--|--L------------L--5---|-------------5--------|
----------------------|-----------------------|----------------------|----------------------|
----------------------|-----------------------|----------------------|----------------------|


  Q.     E  E.  E.  E     H.           E  E     E  E   E   Q    E  E  E     E  E  E  H        E   
-----------------------|---------------------|---------------------------|-----------------------|
-----------------------|---------------------|---------------------------|-----------------------|
----------------3---5--|--L------------L-----|-----8--10--11-------6--8--|--L--------6-----------|
--L------5--5----------|---------------------|------------------8--------|-----4--6--------------|
-----------------------|---------------------|-----6---8---9-------4--6--|--L--------4-----------|
-----------------------|---------------------|------------------6--------|-----2--4--------------|


  E  E   E   Q    E  E  E     H.           Q       E  E   E   Q    E  E  E   
---------------------------|--------------------|---------------------------|
---------------------------|--------------------|------------11----------9--|
-----8--10--11-------6--8--|--L-----------------|-----8--11--------6--8-----|
------------------8--------|--------------------|-------------8----------6--|
-----6---8---9-------4--6--|--L-----------------|-----6---9--------4--6-----|
------------------6--------|--------------------|---------------------------|


  E  E  E  H        E     E  E  E   Q    E   E   E     Q.     H        E     W                 
-----------------------|------------------------11--|--L------------------|-------------------|
--L--------7-----------|--------7--11----9--11------|---------------------|-------------------|
--------6--------------|-----8-------------------8--|--L------------------|-------------------|
--L--8-----4-----------|--------4---8----6---8------|---------------------|-------------------|
--------4--------------|-----6----------------------|---------------------|-------------------|
-----6-----------------|----------------------------|---------------------|-------------------|


  W                   Q    Q    Q    Q       H.           Q       W                 
-------------------|-----------------0----|--L-----------------|-------------------|
-------------------|------------3---------|--------------------|-------------------|
-------------------|-------0--------------|--------------------|-------------------|
-------------------|------------0----2----|--L-----------------|-------------------|
-------------------|----------------------|--------------------|-------------------|
-------------------|-------3--------------|--------------------|-------------------|


  W                   Q     Q     Q     Q       W                   H.           E  S S    
-------------------|-------------10----14----|-------------------|-----------------------||
-------------------|-------12----------------|-------------------|-----------------------||
-------------------|--------------7----11----|-------------------|--------------------3-*||
-------------------|--------9----------------|-------------------|------------------5---*||
-------------------|-------------------------|-------------------|-----------------------||
-------------------|-------------------------|-------------------|-----------------------||



Sawtooth 

     Q       E  E  E  E  E  E  E  E     E  E  E  E  E  E  E  E     E  E  E  E  E  E  E  E   
E||-------|--6--6--6--6--6--6--6--6--|--6--6--6--6--6--6--6--6--|--6--6--6--6--6--6--6--6--|
B||-------|--6--6--6--6--6--6--6--6--|--6--6--6--6--6--6--6--6--|--6--6--6--6--6--6--6--6--|
G||-------|--------------------------|--------------------------|--------------------------|
D||-------|--------------------------|--------------------------|--------------------------|
A||-------|--------------------------|--------------------------|--------------------------|
E||-------|--------------------------|--------------------------|--------------------------|


  E  E  E  E  E  E  E  E     E  E  E  E  E  E  E  E     E  E  E  E  E  E  E  E   
--6--6--6--6--6--6--6--6--|--6--6--6--6--6--6--6--6--|--6--6--6--6--6--6--6--6--|
--6--6--6--6--6--6--6--6--|--6--6--6--6--6--6--6--6--|--6--6--6--6--6--6--6--6--|
--------------------------|--------------------------|--------------------------|
--------------------------|--------------------------|--------------------------|
--------------------------|--------------------------|--------------------------|
--------------------------|--------------------------|--------------------------|


  E  E  E  E  E  E  E  E     E  E  E  E  E  E  E  E       E  E  E  E  E  E  E  E   
--6--6--6--6--6--6--6--6--|--6--6--6--6--6--6--6--6--||---8--8--8--8--8--8--8--8--|
--6--6--6--6--6--6--6--6--|--6--6--6--6--6--6--6--6--||---8--8--8--8--8--8--8--8--|
--------------------------|--------------------------||*--------------------------|
--------------------------|--------------------------||*--------------------------|
--------------------------|--------------------------||---------------------------|
--------------------------|--------------------------||---------------------------|


  E  E  E  E  E  E  E  E     E  E  E  E  E  E  E  E     E  E  E  E  E  E  E  E   
--8--8--8--8--8--8--8--8--|--8--8--8--8--8--8--8--8--|--8--8--8--8--8--8--8--8--|
--8--8--8--8--8--8--8--8--|--8--8--8--8--8--8--8--8--|--8--8--8--8--8--8--8--8--|
--------------------------|--------------------------|--------------------------|
--------------------------|--------------------------|--------------------------|
--------------------------|--------------------------|--------------------------|
--------------------------|--------------------------|--------------------------|


  E  E  E  E  E  E  E  E     E  E  E  E  E  E  E  E     Q    E  E  E  E  E  E   
--8--8--8--8--8--8--8--8--|--8--8--8--8--8--8--8--8--|-------------------------|
--8--8--8--8--8--8--8--8--|--8--8--8--8--8--8--8--8--|--9----9--9--9--9--9--9--|
--------------------------|--------------------------|--8----8--8--8--8--8--8--|
--------------------------|--------------------------|-------------------------|
--------------------------|--------------------------|-------------------------|
--------------------------|--------------------------|-------------------------|


  E  E  E  E  E  E  E  E     Q    E  E  E  E  E  E     E  E  E  E  E  E  E  E   
--------------------------|--6----6--6--6--6--6--6--|--6--6--6--6--6--6--6--6--|
--9--9--9--9--9--9--9--9--|--6----6--6--6--6--6--6--|--6--6--6--6--6--6--6--6--|
--8--8--8--8--8--8--8--8--|-------------------------|--------------------------|
--------------------------|-------------------------|--------------------------|
--------------------------|-------------------------|--------------------------|
--------------------------|-------------------------|--------------------------|


  Q    E  E  E  E  E  E     E  E  E  E  E  E  E  E     Q    E  E  E  E  E  E   
--4----4--4--4--4--4--4--|--4--4--4--4--4--4--4--4--|--6----6--6--6--6--6--6--|
--4----4--4--4--4--4--4--|--4--4--4--4--4--4--4--4--|--6----6--6--6--6--6--6--|
-------------------------|--------------------------|-------------------------|
-------------------------|--------------------------|-------------------------|
-------------------------|--------------------------|-------------------------|
-------------------------|--------------------------|-------------------------|


  E  E  E  E  E  E  E  E     E  E  E  E  E  E  E  E     E  E  E  E  E  E  E  E   
--6--6--6--6--6--6--6--6--|--8--8--8--8--8--8--8--8--|--8--8--8--8--8--8--8--8--|
--6--6--6--6--6--6--6--6--|--8--8--8--8--8--8--8--8--|--8--8--8--8--8--8--8--8--|
--------------------------|--------------------------|--------------------------|
--------------------------|--------------------------|--------------------------|
--------------------------|--------------------------|--------------------------|
--------------------------|--------------------------|--------------------------|


  E  E  E  E  E  E  E  E     E  E  E  E  E  E  E  E     E  E  E  E  E  E  E  E   
--8--8--8--8--8--8--8--8--|--8--8--8--8--8--8--8--8--|--8--8--8--8--8--8--8--8--|
--8--8--8--8--8--8--8--8--|--8--8--8--8--8--8--8--8--|--8--8--8--8--8--8--8--8--|
--------------------------|--------------------------|--------------------------|
--------------------------|--------------------------|--------------------------|
--------------------------|--------------------------|--------------------------|
--------------------------|--------------------------|--------------------------|


  E  E  E  E  E  Q.        W                   H        Q     Q       W                 
--8--8--8--8--8---------|--6----------------|--L--------6-----9----|--6----------------|
--8--8--8--8--8---------|-------------------|----------------------|-------------------|
------------------------|--8----------------|--L--------8----11----|--8----------------|
------------------------|-------------------|----------------------|-------------------|
------------------------|--6----------------|--L--------6-----9----|--6----------------|
------------------------|-------------------|----------------------|-------------------|


  H         Q     Q       W                   H        Q     Q       W                 
--L---------9----11----|--6----------------|--L--------6-----9----|--6----------------|
-----------------------|-------------------|----------------------|-------------------|
--L--------11----13----|--8----------------|--L--------8----11----|--8----------------|
-----------------------|-------------------|----------------------|-------------------|
--L---------9----11----|--6----------------|--L--------6-----9----|--6----------------|
-----------------------|-------------------|----------------------|-------------------|


  H         E   E  E  E      E   E   E   E   E   E   E   E      E   E   E   E   E  Q.      
--L----------------------|----------------------------------|-----------------------------|
-----------11--11--9--9--|--12--12--12--12--12--12--12--12--|--12--12--12--12--12---------|
--L---------8---8--6--6--|--11--11--11--11--11--11--11--11--|--11--11--11--11--11---------|
--L---------8---8--6--6--|---9---9---9---9---9---9---9---9--|---9---9---9---9---9---------|
--L----------------------|----------------------------------|-----------------------------|
--L----------------------|----------------------------------|-----------------------------|


  W                    W                    E   E   E   E   E   E   E   E   
-------------------|--------------------|----------------------------------|
--8----------------|--10----------------|--12--12--12--12--12--12--12--12--|
--7----------------|---9----------------|--11--11--11--11--11--11--11--11--|
--5----------------|---7----------------|---9---9---9---9---9---9---9---9--|
-------------------|--------------------|----------------------------------|
-------------------|--------------------|----------------------------------|


   E   E   E   E   E  Q.        W                    W                   H.           Q       
-----------------------------|-------------------|--------------------|---------------------||
--12--12--12--12--12---------|--8----------------|--10----------------|--L------------------||
--11--11--11--11--11---------|--7----------------|---9----------------|--L-----------------*||
---9---9---9---9---9---------|--5----------------|---7----------------|--L-----------------*||
-----------------------------|-------------------|--------------------|---------------------||
-----------------------------|-------------------|--------------------|---------------------||


Duration Legend
---------------
W - whole
H - half
Q - quarter
E - 8th
S - 16th
T - 32nd
X - 64th
. - note dotted
|-n-|  - n-tuplets


Tablature Legend
----------------
L - tied note
x - dead note
PM - palm mute 
^ - brush up
v - brush down

        
Comments

@LeonDiablos (June 30, 2017 at 6:57 AM)

Felt such childhood nostalgia playing this on my guitar and bass. Thank you so much for making this!