Gametabs
Home
Tabs
Random

Mattrex

Average rating: 4.750

4 ratings

Composer:

Tabber:

Style:

Instrument:

Created: December 10, 2012 at 12:00 AM

            Mattrex                                     
Burn Dinorex - Red-Hot World!
Megaman X5
Naoto Tanaka, Naoya Kamisaka, and Takuya Miyawaki
JordanVS


* To fulfill ThatMetalBrony714 request =D


	Lead Guitar



     W                    W                   Q     Q     H         
E||-------------------|--17----------------|--L----------15--------|
B||-------------------|--------------------|-------15--------------|
G||-------------------|--------------------|-----------------------|
D||-------------------|--------------------|-----------------------|
A||-------------------|--------------------|-----------------------|
E||-------------------|--------------------|-----------------------|


  H         Q     Q        E   E   E   E   E   E   E   E   
--L--------------------|----------------------------------|
-----------13----15----|------15--13------15--13------15--|
-----------------------|--14----------12----------14------|
-----------------------|----------------------------------|
-----------------------|----------------------------------|
-----------------------|----------------------------------|


   E   E   E   E   E   E   E   E      E   E   E   E   E   E   E   E   
------------------------------13--|--12------13--12------13--12--15--|
--13------15--13------15--13------|------13----------13--------------|
------12----------14--------------|----------------------------------|
----------------------------------|----------------------------------|
----------------------------------|----------------------------------|
----------------------------------|----------------------------------|


  W                   W                                                         
--L----------------|--L----------------|-------------------|-------------------|
-------------------|-------------------|-------------------|-------------------|
-------------------|-------------------|-------------------|-------------------|
-------------------|-------------------|-------------------|-------------------|
-------------------|-------------------|-------------------|-------------------|
-------------------|-------------------|-------------------|-------------------|


-------------------|-------------------|-------------------|-------------------|
-------------------|-------------------|-------------------|-------------------|
-------------------|-------------------|-------------------|-------------------|
-------------------|-------------------|-------------------|-------------------|
-------------------|-------------------|-------------------|-------------------|
-------------------|-------------------|-------------------|-------------------|


     H        Q.     E      E.  E.  E  H           Q.     E  Q.     E   
|-----------------------|-----------------------|----------------------|
|---10--------8---------|-----------------------|----------------------|
|*-------------------9--|--10---9---5--7--------|------------5---------|
|*----------------------|-----------------------|--7------5---------7--|
|-----------------------|-----------------------|----------------------|
|-----------------------|-----------------------|----------------------|


  E.  E.  E  Q    Q        H        Q.      E      E.  E.  E   H         
-----------------------|-----------------------|--10---8----------------|
------5---6--5----8----|--10--------8----------|-----------8--10--------|
--7--------------------|-------------------10--|------------------------|
-----------------------|-----------------------|------------------------|
-----------------------|-----------------------|------------------------|
-----------------------|-----------------------|------------------------|


   Q.     E  Q.      E     E.  E.   E  E.   E.  E      W                 
------------------------|-----------------------8--|--------------------|
----------8-------------|--------------8---10------|--10----------------|
--10---------9------10--|--7---9---10--------------|--------------------|
------------------------|--------------------------|--------------------|
------------------------|--------------------------|--------------------|
------------------------|--------------------------|--------------------|


   E.   E.   E   H            W                   W                 
--10--------10--13--------|--------------------|-------------------|
-------13-----------------|--13----------------|--L----------------|
--------------------------|--12----------------|--L----------------|
--------------------------|--------------------|-------------------|
--------------------------|--------------------|-------------------|
--------------------------|--------------------|-------------------|


  PM PM PM PM                                          
  S  S  S  S  Q    H            Q.     S  S  H         
----------------------------|-------------------------|
--------------8----6--------|--10------8-10-----------|
--------5--7----------------|-------------------------|
--5--7----------------------|---------------10--------|
----------------------------|-------------------------|
----------------------------|-------------------------|


  PM PM PM PM PM PM  PM PM  PM PM PM PM     PM PM  PM                 
  |--3--|  |--3--|   |---3--|  |--3--|      |---3--|                  
  E  E  E  E  E  E   E  E   E  E  E  E      E  E   E  Q     H         
----------------------------------------|-------------8--------------|
-------------------------------8-----8--|--10-----10-------10--------|
--7-----7--9-----9--10-----10-----7-----|------7---------------------|
-----7--------7---------7---------------|----------------------------|
----------------------------------------|----------------------------|
----------------------------------------|----------------------------|


   PMPM  PM PM                                                   
   S S   S  S  Q    H            Q.      S   S   Q.      S   S   
--------------10----8--------|--13------12h-13p-12--------------|
-----------10----------------|--------------------------15p-13h-|
-----9--12-------------------|----------------------------------|
--12-------------------------|----------------------------------|
-----------------------------|----------------------------------|
-----------------------------|----------------------------------|


                        PM  PM  PM  PM  PM  PM  PM  PM  PM  PM  PM  PM  
                        |---3---|   |---3---|   |---3---|   |---3---|   
   W                    E   E   E   E   E   E   E   E   E   E   E   E   
--------------------|--------------------------------------------------|
--15----------------|--------------------------------------13------13--|
--------------------|--12------12--14------14--15------15------10------|
--------------------|------12----------12----------12------------------|
--------------------|--------------------------------------------------|
--------------------|--------------------------------------------------|


   W                     S   S  S  S   S   S  S  S   S   S  S  S   S   S  S  S  
---------------------|--13p-12----12h-13p-12----12h-13p-12----12h-13p-12----12-|
--15~----------------|---------15------------15------------15------------15----|
---------------------|---------------------------------------------------------|
---------------------|---------------------------------------------------------|
---------------------|---------------------------------------------------------|
---------------------|---------------------------------------------------------|


   S   S  S  S   S   S  S  S   S   S  S  S   S   S  S  S  
--15p-13----13h-15p-13----13h-15p-13----13h-15p-13----13-|
---------15------------15------------15------------15----|
---------------------------------------------------------|
---------------------------------------------------------|
---------------------------------------------------------|
---------------------------------------------------------|


   S   S  S  S   S   S  S  S   S   S  S  S   S   S  S  S  
--17p-15----15h-17p-15----15h-17p-15----15h-17p-15----15-|
---------15------------15------------15------------15----|
---------------------------------------------------------|
---------------------------------------------------------|
---------------------------------------------------------|
---------------------------------------------------------|


   T       T       T       T       T       T       T       T       T       T    
   T   T   T   T   T   T   T   T   T   T   T   T   T   T   T   T   T   T   T   T
--13p-10h-13p-10h-13p-10h-13p-10h-13p-10h-13p-10h-13p-10h-13p-10h-13p-10h-13p-10
--------------------------------------------------------------------------------
--------------------------------------------------------------------------------
--------------------------------------------------------------------------------
--------------------------------------------------------------------------------
--------------------------------------------------------------------------------


   T       T       T       T       T       T       T       T       T       T    
   T   T   T   T   T   T   T   T   T   T   T   T   T   T   T   T   T   T   T   T
--13p-10h-13p-10h-13p-10h-13p-10h-13p-10h-13p-10h-13p-10h-13p-10h-13p-10h-13p-10
--------------------------------------------------------------------------------
--------------------------------------------------------------------------------
--------------------------------------------------------------------------------
--------------------------------------------------------------------------------
--------------------------------------------------------------------------------


----|-------------------|-------------------|-------------------|
----|-------------------|-------------------|-------------------|
----|-------------------|-------------------|-------------------|
----|-------------------|-------------------|-------------------|
----|-------------------|-------------------|-------------------|
----|-------------------|-------------------|-------------------|


-------------------|-------------------|-------------------|
-------------------|-------------------|-------------------|
-------------------|-------------------|-------------------|
-------------------|-------------------|-------------------|
-------------------|-------------------|-------------------|
-------------------|-------------------|-------------------|


--------------------||
--------------------||
-------------------*||
-------------------*||
--------------------||
--------------------||




Duration Legend
---------------
W - whole
H - half
Q - quarter
E - 8th
S - 16th
T - 32nd
. - note dotted
|-n-|  - n-tuplets


Tablature Legend
----------------
L - tied note
h - hammer on
p - pull off
b - bend
~ - vibrato
W - wide vibrato
T - tapping



	Rhythm Guitar



     PM PM PM   PM PM PM PM PM   PM PM    PM PM PM   PM PM PM PM PM   PM PM  
     S  S  Q    S  S  S  S  Q    S  S     S  S  Q    S  S  S  S  Q    S  S   
E||------------------------------------|------------------------------------|
B||------------------------------------|------------------------------------|
G||------------------------------------|------------------------------------|
D||--3--3--3----3--3--5--5--5----5--5--|--3--3--3----3--3--5--5--5----5--5--|
A||--3--3--3----3--3--5--5--5----5--5--|--3--3--3----3--3--5--5--5----5--5--|
E||--1--1--1----1--1--3--3--3----3--3--|--1--1--1----1--1--3--3--3----3--3--|


  PM PM PM   PM PM PM PM PM   PM PM    PM PM PM   PM PM PM PM PM   PM PM  
  S  S  Q    S  S  S  S  Q    S  S     S  S  Q    S  S  S  S  Q    S  S   
------------------------------------|------------------------------------|
------------------------------------|------------------------------------|
------------------------------------|------------------------------------|
--3--3--3----3--3--5--5--5----5--5--|--3--3--3----3--3--5--5--5----5--5--|
--3--3--3----3--3--5--5--5----5--5--|--3--3--3----3--3--5--5--5----5--5--|
--1--1--1----1--1--3--3--3----3--3--|--1--1--1----1--1--3--3--3----3--3--|


  PM PM PM   PM PM PM PM PM   PM PM    PM PM PM   PM PM PM PM PM   PM PM  
  S  S  Q    S  S  S  S  Q    S  S     S  S  Q    S  S  S  S  Q    S  S   
------------------------------------|------------------------------------|
------------------------------------|------------------------------------|
------------------------------------|------------------------------------|
--3--3--3----3--3--5--5--5----5--5--|--3--3--3----3--3--5--5--5----5--5--|
--3--3--3----3--3--5--5--5----5--5--|--3--3--3----3--3--5--5--5----5--5--|
--1--1--1----1--1--3--3--3----3--3--|--1--1--1----1--1--3--3--3----3--3--|


  PM PM PM   PM PM PM PM PM   PM PM    PM PM PM   PM PM PM PM PM   PM PM  
  S  S  Q    S  S  S  S  Q    S  S     S  S  Q    S  S  S  S  Q    S  S   
------------------------------------|------------------------------------|
------------------------------------|------------------------------------|
------------------------------------|------------------------------------|
--3--3--3----3--3--5--5--5----5--5--|--3--3--3----3--3--5--5--5----5--5--|
--3--3--3----3--3--5--5--5----5--5--|--3--3--3----3--3--5--5--5----5--5--|
--1--1--1----1--1--3--3--3----3--3--|--1--1--1----1--1--3--3--3----3--3--|


  PM PM PM   PM PM PM PM PM   PM PM    PM PM PM   PM PM PM PM PM   PM PM  
  S  S  Q    S  S  S  S  Q    S  S     S  S  Q    S  S  S  S  Q    S  S   
------------------------------------|------------------------------------|
------------------------------------|------------------------------------|
------------------------------------|------------------------------------|
--3--3--3----3--3--5--5--5----5--5--|--3--3--3----3--3--5--5--5----5--5--|
--3--3--3----3--3--5--5--5----5--5--|--3--3--3----3--3--5--5--5----5--5--|
--1--1--1----1--1--3--3--3----3--3--|--1--1--1----1--1--3--3--3----3--3--|


  PM PM PM   PM PM PM PM PM   PM PM    PM PM PM   PM PM PM PM PM   PM PM  
  S  S  Q    S  S  S  S  Q    S  S     S  S  Q    S  S  S  S  Q    S  S   
------------------------------------|------------------------------------|
------------------------------------|------------------------------------|
------------------------------------|------------------------------------|
--3--3--3----3--3--5--5--5----5--5--|--3--3--3----3--3--5--5--5----5--5--|
--3--3--3----3--3--5--5--5----5--5--|--3--3--3----3--3--5--5--5----5--5--|
--1--1--1----1--1--3--3--3----3--3--|--1--1--1----1--1--3--3--3----3--3--|


  PM PM PM   PM PM PM PM PM   PM PM    PM PM PM   PM PM PM PM PM   PM PM  
  S  S  Q    S  S  S  S  Q    S  S     S  S  Q    S  S  S  S  Q    S  S   
------------------------------------|------------------------------------|
------------------------------------|------------------------------------|
------------------------------------|------------------------------------|
--3--3--3----3--3--5--5--5----5--5--|--3--3--3----3--3--5--5--5----5--5--|
--3--3--3----3--3--5--5--5----5--5--|--3--3--3----3--3--5--5--5----5--5--|
--1--1--1----1--1--3--3--3----3--3--|--1--1--1----1--1--3--3--3----3--3--|


  PM PM PM   PM PM PM PM PM   PM PM      PM PM PM     PM PM PM PM PM     
  S  S  Q    S  S  S  S  Q    S  S       S  S  S  E.  S  S  E  E  E  E   
------------------------------------||----------------------------------|
------------------------------------||----------------------------------|
------------------------------------||*--2--2--2------2--2--2--2--2-----|
--3--3--3----3--3--5--5--5----5--5--||*--0--0--0------0--0--0--0--0-----|
--3--3--3----3--3--5--5--5----5--5--||---0--0--0------0--0--0--0--0-----|
--1--1--1----1--1--3--3--3----3--3--||----------------------------------|


  PM PM PM     PM PM PM PM PM       PM PM PM     PM PM PM PM PM     
  S  S  S  E.  S  S  E  E  E  E     S  S  S  E.  S  S  E  E  E  E   
---------------------------------|---------------------------------|
---------------------------------|---------------------------------|
--2--2--2------2--2--2--2--2-----|--2--2--2------2--2--2--2--2-----|
--0--0--0------0--0--0--0--0-----|--0--0--0------0--0--0--0--0-----|
--0--0--0------0--0--0--0--0-----|--0--0--0------0--0--0--0--0-----|
---------------------------------|---------------------------------|


  PM PM PM     PM PM PM PM PM       PM PM PM     PM PM PM PM PM     
  S  S  S  E.  S  S  E  E  E  E     S  S  S  E.  S  S  E  E  E  E   
---------------------------------|---------------------------------|
---------------------------------|---------------------------------|
--2--2--2------2--2--2--2--2-----|--2--2--2------2--2--2--2--2-----|
--0--0--0------0--0--0--0--0-----|--0--0--0------0--0--0--0--0-----|
--0--0--0------0--0--0--0--0-----|--0--0--0------0--0--0--0--0-----|
---------------------------------|---------------------------------|


  PM PM PM     PM PM PM PM PM       PM PM PM     PM PM PM PM PM     
  S  S  S  E.  S  S  E  E  E  E     S  S  S  E.  S  S  E  E  E  E   
---------------------------------|---------------------------------|
---------------------------------|---------------------------------|
--2--2--2------2--2--2--2--2-----|--2--2--2------2--2--2--2--2-----|
--0--0--0------0--0--0--0--0-----|--0--0--0------0--0--0--0--0-----|
--0--0--0------0--0--0--0--0-----|--0--0--0------0--0--0--0--0-----|
---------------------------------|---------------------------------|


  PM PM PM     PM PM PM PM PM      PM PM PM   PM PM PM PM PM   PM PM  
  S  S  S  E.  S  S  E  E  Q       S  S  Q    S  S  S  S  Q    S  S   
--------------------------------|------------------------------------|
--------------------------------|------------------------------------|
--2--2--2------2--2--5--5-------|------------------------------------|
--0--0--0------0--0--5--5--5----|--3--3--3----3--3--5--5--5----5--5--|
--0--0--0------0--0--3--3--3----|--3--3--3----3--3--5--5--5----5--5--|
---------------------------3----|--1--1--1----1--1--3--3--3----3--3--|


  PM PM PM   PM PM PM PM PM   PM PM    PM PM PM   PM PM PM PM PM   PM PM  
  S  S  Q    S  S  S  S  Q    S  S     S  S  Q    S  S  S  S  Q    S  S   
------------------------------------|------------------------------------|
------------------------------------|------------------------------------|
------------------------------------|------------------------------------|
--3--3--3----3--3--5--5--5----5--5--|--3--3--3----3--3--5--5--5----5--5--|
--3--3--3----3--3--5--5--5----5--5--|--3--3--3----3--3--5--5--5----5--5--|
--1--1--1----1--1--3--3--3----3--3--|--1--1--1----1--1--3--3--3----3--3--|


  PM PM PM   PM PM PM PM PM   PM PM    PM PM PM     PM PM PM PM PM     
  S  S  Q    S  S  S  S  Q    S  S     S  S  S  E.  S  S  E  E  E  E   
------------------------------------|---------------------------------|
------------------------------------|---------------------------------|
------------------------------------|--3--3--3------3--3--3--3--3-----|
--3--3--3----3--3--5--5--5----5--5--|--3--3--3------3--3--3--3--3-----|
--3--3--3----3--3--5--5--5----5--5--|--1--1--1------1--1--1--1--1-----|
--1--1--1----1--1--3--3--3----3--3--|---------------------------------|


  PM PM PM     PM PM PM PM PM       PM PM PM     PM PM PM PM PM     
  S  S  S  E.  S  S  E  E  E  E     S  S  S  E.  S  S  E  E  E  E   
---------------------------------|---------------------------------|
---------------------------------|---------------------------------|
--3--3--3------3--3--3--3--3-----|--3--3--3------3--3--3--3--3-----|
--3--3--3------3--3--3--3--3-----|--3--3--3------3--3--3--3--3-----|
--1--1--1------1--1--1--1--1-----|--1--1--1------1--1--1--1--1-----|
---------------------------------|---------------------------------|


  PM PM PM     PM PM PM PM PM       PM PM PM     PM PM PM PM PM     
  S  S  S  E.  S  S  E  E  E  E     S  S  S  E.  S  S  E  E  E  E   
---------------------------------|---------------------------------|
---------------------------------|---------------------------------|
--3--3--3------3--3--3--3--3-----|--3--3--3------3--3--3--3--3-----|
--3--3--3------3--3--3--3--3-----|--3--3--3------3--3--3--3--3-----|
--1--1--1------1--1--1--1--1-----|--1--1--1------1--1--1--1--1-----|
---------------------------------|---------------------------------|


  PM PM PM     PM PM PM PM PM       PM PM PM     PM PM PM PM PM     
  S  S  S  E.  S  S  E  E  E  E     S  S  S  E.  S  S  E  E  E  E   
---------------------------------|---------------------------------|
---------------------------------|---------------------------------|
--3--3--3------3--3--3--3--3-----|--3--3--3------3--3--3--3--3-----|
--3--3--3------3--3--3--3--3-----|--3--3--3------3--3--3--3--3-----|
--1--1--1------1--1--1--1--1-----|--1--1--1------1--1--1--1--1-----|
---------------------------------|---------------------------------|


  PM PM PM     PM PM PM PM PM                                                
  S  S  S  E.  S  S  E  E  Q       H.           E  S S    H        H         
--------------------------------|----------------------|--------------------|
--------------------------------|----------------------|--------------------|
--3--3--3------3--3--7--7--2----|----------------------|-----------0--------|
--3--3--3------3--3--7--7--0----|--0------------L--0-0-|--3-----------------|
--1--1--1------1--1--5--5--0----|----------------------|--------------------|
--------------------------------|----------------------|--------------------|


  W                   W                   H.           E  S S  
-------------------|-------------------|----------------------|
-------------------|-------------------|----------------------|
--2----------------|--0----------------|----------------------|
-------------------|-------------------|--0------------L--0-0-|
-------------------|-------------------|----------------------|
-------------------|-------------------|----------------------|


  H        H           W                   W                 
--------------------|-------------------|-------------------|
--------------------|-------------------|-------------------|
-----------0--------|--2----------------|--0----------------|
--3-----------------|-------------------|-------------------|
--------------------|-------------------|-------------------|
--------------------|-------------------|-------------------|


  PM PM PM   PM PM PM PM PM   PM PM    PM PM PM   PM PM PM PM PM   PM PM  
  S  S  Q    S  S  S  S  Q    S  S     S  S  Q    S  S  S  S  Q    S  S   
------------------------------------|------------------------------------|
------------------------------------|------------------------------------|
------------------------------------|------------------------------------|
--3--3--3----3--3--5--5--5----5--5--|--3--3--3----3--3--5--5--5----5--5--|
--3--3--3----3--3--5--5--5----5--5--|--3--3--3----3--3--5--5--5----5--5--|
--1--1--1----1--1--3--3--3----3--3--|--1--1--1----1--1--3--3--3----3--3--|


  PM PM PM   PM PM PM PM PM   PM PM    PM PM PM   PM PM PM PM PM   PM PM  
  S  S  Q    S  S  S  S  Q    S  S     S  S  Q    S  S  S  S  Q    S  S   
------------------------------------|------------------------------------|
------------------------------------|------------------------------------|
------------------------------------|------------------------------------|
--3--3--3----3--3--5--5--5----5--5--|--3--3--3----3--3--5--5--5----5--5--|
--3--3--3----3--3--5--5--5----5--5--|--3--3--3----3--3--5--5--5----5--5--|
--1--1--1----1--1--3--3--3----3--3--|--1--1--1----1--1--3--3--3----3--3--|


  PM PM PM   PM PM PM PM PM   PM PM    PM PM PM   PM PM PM PM PM   PM PM    
  S  S  Q    S  S  S  S  Q    S  S     S  S  Q    S  S  S  S  Q    S  S     
------------------------------------|-------------------------------------||
------------------------------------|-------------------------------------||
------------------------------------|------------------------------------*||
--3--3--3----3--3--5--5--5----5--5--|--3--3--3----3--3--5--5--5----5--5--*||
--3--3--3----3--3--5--5--5----5--5--|--3--3--3----3--3--5--5--5----5--5---||
--1--1--1----1--1--3--3--3----3--3--|--1--1--1----1--1--3--3--3----3--3---||




	Bass 




     W                   W                   W                 
G||-------------------|-------------------|-------------------|
D||-------------------|-------------------|-------------------|
A||-------------------|-------------------|-------------------|
E||-------------------|-------------------|-------------------|


  W                   E  E  S S E  E  E  S S E     E  E  S S E  E  E  S S E   
-------------------|------------2---------------|------------2---------------|
-------------------|--0--0----0----0--0----0-3--|--0--0----0----0--0----0-3--|
-------------------|--------3------------3------|--------3------------3------|
-------------------|----------------------------|----------------------------|


  E  E  S S E  E  E  S S E     E  E  S S E  E  E  S S E   
------------2---------------|------------2---------------|
--0--0----0----0--0----0-3--|--0--0----0----0--0----0-3--|
--------3------------3------|--------3------------3------|
----------------------------|----------------------------|


  E  E  S S E  E  E  S S E     E  E  S S E  E  E  S S E   
------------2---------------|------------2---------------|
--0--0----0----0--0----0-3--|--0--0----0----0--0----0-3--|
--------3------------3------|--------3------------3------|
----------------------------|----------------------------|


  E  E  S S E  E  E  S S E     E  E  S S E  E  E  S S E   
------------2---------------|------------2---------------|
--0--0----0----0--0----0-3--|--0--0----0----0--0----0-3--|
--------3------------3------|--------3------------3------|
----------------------------|----------------------------|


  E  E  S S E  E  E  S S E     E  E  S S E  E  E  S S E   
------------2---------------|------------2---------------|
--0--0----0----0--0----0-3--|--0--0----0----0--0----0-3--|
--------3------------3------|--------3------------3------|
----------------------------|----------------------------|


  E  E  S S E  E  E  S S E       E  E  S S E  E  E  S S E   
------------2---------------||-------------2---------------|
--0--0----0----0--0----0-3--||*--0--0----0----0--0----0-3--|
--------3------------3------||*--------3------------3------|
----------------------------||-----------------------------|


  E  E  S S E  E  E  S S E     E  E  S S E  E  E  S S E   
------------2---------------|------------2---------------|
--0--0----0----0--0----0-3--|--0--0----0----0--0----0-3--|
--------3------------3------|--------3------------3------|
----------------------------|----------------------------|


  E  E  S S E  E  E  S S E     E  E  S S E  E  E  S S E   
------------2---------------|------------2---------------|
--0--0----0----0--0----0-3--|--0--0----0----0--0----0-3--|
--------3------------3------|--------3------------3------|
----------------------------|----------------------------|


  E  E  S S E  E  E  S S E     E  E  S S E  E  E  S S E   
------------2---------------|------------2---------------|
--0--0----0----0--0----0-3--|--0--0----0----0--0----0-3--|
--------3------------3------|--------3------------3------|
----------------------------|----------------------------|


  E  E  S S E  H           E  E  S S E  E  E  S S E   
------------2-----------|------------2---------------|
--0--0----0-------------|--0--0----0----0--0----0-3--|
--------3---------------|--------3------------3------|
------------------------|----------------------------|


  E  E  S S E  E  E  S S E     E  E  S S E  E  E  S S E   
------------2---------------|------------2---------------|
--0--0----0----0--0----0-3--|--0--0----0----0--0----0-3--|
--------3------------3------|--------3------------3------|
----------------------------|----------------------------|


  E  E  S S E  E  E  S S E     E  E  S S E  E  E  S S E   
------------2---------------|----------------------------|
--0--0----0----0--0----0-3--|----------------------------|
--------3------------3------|------------5------------8--|
----------------------------|--6--6--4-6----6--6--4-6----|


  E  E  S S E  E  E  S S E     E  E  S S E  E  E  S S E   
----------------------------|----------------------------|
----------------------------|----------------------------|
------------5------------8--|------------5------------8--|
--6--6--4-6----6--6--4-6----|--6--6--4-6----6--6--4-6----|


  E  E  S S E  E  E  S S E     E  E  S S E  E  E  S S E   
----------------------------|----------------------------|
----------------------------|----------------------------|
------------5------------8--|------------5------------8--|
--6--6--4-6----6--6--4-6----|--6--6--4-6----6--6--4-6----|


  E  E  S S E  E  E  S S E     E  E  S S E  E  E  S S E   
----------------------------|----------------------------|
----------------------------|----------------------------|
------------5------------8--|------------5------------8--|
--6--6--4-6----6--6--4-6----|--6--6--4-6----6--6--4-6----|


  E  E  S S E  H           E  E  S S E  E  E  S S E   
------------------------|------------2---------------|
------------------------|--0--0----0----0--0----0-3--|
------------5-----------|--------3------------3------|
--6--6--4-6-------------|----------------------------|


  E  E  S S E  E  E  S S E     E  E  S S E  E  E  S S E   
------------2---------------|------------2---------------|
--0--0----0----0--0----0-3--|--0--0----0----0--0----0-3--|
--------3------------3------|--------3------------3------|
----------------------------|----------------------------|


  E  E  S S E  E  E  S S E     E  E  S S E  E  E  S S E   
------------2---------------|------------2---------------|
--0--0----0----0--0----0-3--|--0--0----0----0--0----0-3--|
--------3------------3------|--------3------------3------|
----------------------------|----------------------------|


  E  E  S S E  E  E  S S E     E  E  S S E  E  E  S S E   
------------2---------------|------------2---------------|
--0--0----0----0--0----0-3--|--0--0----0----0--0----0-3--|
--------3------------3------|--------3------------3------|
----------------------------|----------------------------|


  E  E  S S E  E  E  S S E     E  E  S S E  E  E  S S E   
------------2---------------|------------2---------------|
--0--0----0----0--0----0-3--|--0--0----0----0--0----0-3--|
--------3------------3------|--------3------------3------|
----------------------------|----------------------------|


  E  E  S S E  E  E  S S E     E  E  S S E  E  E  S S E   
------------2---------------|------------2---------------|
--0--0----0----0--0----0-3--|--0--0----0----0--0----0-3--|
--------3------------3------|--------3------------3------|
----------------------------|----------------------------|


  E  E  S S E  E  E  S S E     E  E  S S E  E  E  S S E   
------------2---------------|------------2---------------|
--0--0----0----0--0----0-3--|--0--0----0----0--0----0-3--|
--------3------------3------|--------3------------3------|
----------------------------|----------------------------|


  E  E  S S E  E  E  S S E     
------------2----------------||
--0--0----0----0--0----0-3--*||
--------3------------3------*||
-----------------------------||
        
Comments

@ThatMetalBrony714 (December 11, 2012 at 10:17 PM)

Thanks, this is awesome!