Gametabs
Home
Tabs
Random

Storm Owl

Average rating: 5.000

4 ratings

Composer:

Tabber:

Style:

Instrument:

Created: December 31, 2011 at 12:00 AM

            Storm Owl Stage
Megaman X4
Composed by Toshihiko Horiyama
Arranged by William Geesdorf


                 ^                          ^                          ^            
     E  E  E  E  E  E  E  E     E  E  E  E  E  E  E  E     E  E  E  E  E  E  E  E   
E||--------------0-----------|--------------1-----------|--------------------------|
B||--------------1-----------|--------------1-----------|--------------3-----------|
G||--2-----------2-----------|--2-----------2-----------|--------------4-----------|
D||--2-----------2-----------|--3-----------3-----------|--5-----------5-----------|
A||--0-----0-----0-----0--0--|--0-----0-----0-----0--0--|--5-----------5-----------|
E||--------------------------|--------------------------|--3-----3-----3-----3--3--|


              ^                          ^                          ^            
  E  E  E  E  E  E  E  E     E  E  E  E  E  E  E  E     E  E  E  E  E  E  E  E   
--------------0-----------|--------------0-----------|--------------1-----------|
--1-----------1-----------|--------------1-----------|--------------1-----------|
--0-----------0-----------|--2-----------2-----------|--2-----------2-----------|
--------------2-----------|--2-----------2-----------|--3-----------3-----------|
--3-----3-----3-----3--3--|--0--0--0--0--0--0--0--0--|--0--0--0--0--0--0--0--0--|
--------------------------|--------------------------|--------------------------|


              ^                          ^                                       
  E  E  E  E  E  E  E  E     E  E  E  E  E  E  E  E     E  E  E  E  E  E  E  E   
--------------------------|--------------0-----------|--------------------------|
--------------3-----------|--1-----------1-----------|--------------1-----3-----|
--------------4-----------|--0-----------0-----------|-----2--------2-----2-----|
--5-----------5-----------|--------------2-----------|-----2--------------------|
--5-----------5-----------|--3--3--3--3--3--3--3--3--|--0--------0--0--------0--|
--3--3--3--3--3--3--3--3--|--------------------------|--------------------------|


  E  E  E  E  E  E  E  E     E  E  E  E  E  E  E  E     E  E  E  E  E  E  E  E   
--------------------------|--------------------------|--------------------------|
--------------1-----3-----|--------------1--------3--|--5-----------6--5-----3--|
-----2--------2-----2-----|--0-----------0--------0--|--5-----------5--5-----5--|
-----3--------------------|--0-----------------------|--------------------------|
--0--------0--0--------0--|--------------------------|--3--------3--3--------3--|
--------------------------|--3--------3--3--------3--|--------------------------|


                                                 NH   NH                        NH     
  E  E  E  E  E  E  E  E     E  E  E  E  E  E    E    E     E  E  E  E  E  E    E  E   
--------------------------|--------------1---------------|----------------------------|
--------------1-----3-----|-----1--------1----------<>5--|----------------------------|
-----2--------2-----2-----|-----2--------2---------------|--------------------<>7--5--|
-----2--------------------|-----3------------------------|-------------------------5--|
--0--------0--0--------0--|--0--------0--0-----<>5-------|----------------------------|
--------------------------|------------------------------|--3--------3--3-------------|


  E  E  E  E  E  E  E  E     E  E  E  E  E  E  E  E     E  E  E  E  E  E  E  E   
--------------------------|--------------------------|--------------------------|
--------------------------|--------------------------|--------------------------|
--------------------------|--2--------------0--------|--5--------------4-----2--|
--------------------------|--2--------------2-----3--|--3--------------3-----3--|
--3--------3--3-----3--3--|--0--0--0--0--0--0--0--0--|--0--0--0--0--0--0--0--0--|
--------------------------|--------------------------|--------------------------|


  E  E  E  E  E  E  E  E     E  E  E  E  E  E  E  E     E  E  E  E  E  E  E  E   
--------------------------|-----3--------------------|--5--------------3-----0--|
--3--------5--------6-----|--------6--5--------------|--5--------------5-----6--|
--0--------0--------0-----|-----5--5--5--------------|--------------------------|
--------------------------|--------------------------|--------------------------|
--------------------------|--3--3--3--3--3--3--3--3--|--0--0--0--0--0--0--0--0--|
--3--3--3--3--3--3--3--3--|--------------------------|--------------------------|


  E  E  E  E  E  E  E  E     E  E  E  E  E  E  E  E     E  E  E  E  E  E  E  E   
--8--------------7-----5--|--------------------------|-----3--------------------|
--6--------------6-----6--|--3--------5--------6-----|--------6--5--------------|
--------------------------|--0--------0--------0-----|-----5--5--5--------------|
--------------------------|--------------------------|--------------------------|
--0--0--0--0--0--0--0--0--|--------------------------|--3--3--3--3--3--3--3--3--|
--------------------------|--3--3--3--3--3--3--3--3--|--------------------------|


  E  E  E  E  E  E  E  E     E  E  E  E  E  E  E  E     E  E  E  E  E  E  E  E   
--------------------------|--------2--4--5--4--2-----|--------------------------|
--5-----------------------|--2--5-----------------5--|--4-----------2-----0-----|
--6-----------------------|--2-----------------------|--4-----------4-----4-----|
--6-----------------------|--------------------------|--4-----------4-----4-----|
--4-----4-----4-----4--4--|--4-----4-----4-----4--4--|--2-----2-----2-----2--2--|
--------------------------|--------------------------|--------------------------|


  E  E  E  S  S E  E  E  E     E  E  E  E  E  E  E  E     E  E  E  E  E  E  E  E   
--0-------------------------|--------------------------|--------------------------|
--0-------------------------|--5-----------------------|--2-----------------------|
--1-------------6-----------|--6-----------------------|--2--------1--2--6--4--6--|
-----------4S-6----6--------|--6-----------------------|-----2--4-----------------|
----------------------7--6--|--4-----4-----4-----4--4--|--4-----4-----4-----4--4--|
--0-----0-------0-----0--0--|--------------------------|--------------------------|


                       ^                                                         
  E  E  E  E  E  E  E  E     E  E  E  E  E  E  E  E     E  E  E  E  E  E  E  E   
--------------------2--0--|--------------------------|--------------------------|
--4-----------------4--0--|--------------------------|--------------1-----3-----|
--4-----------------4--1--|--------------------------|-----2--------2-----2-----|
--4--------------------2--|--------------------------|-----2--------------------|
--2-----2-----2-----2--2--|--------------------------|--0--0--0--0--0--0--0--0--|
-----------------------0--|--0-----0-----0-----0--0--|--------------------------|


  E  E  E  E  E  E  E  E     E  E  E  E  E  E  E  E     E  E  E  E  E  E  E  E   
--------------------------|--------------------------|--------------------------|
--------------1-----3-----|--------------1--------3--|--5-----------6--5-----3--|
-----2--------2-----2-----|--0-----------0--------0--|--5-----------5--5-----5--|
-----3--------------------|--0-----------------------|--------------------------|
--0--0--0--0--0--0--0--0--|--------------------------|--3--3--3--3--3--3--3--3--|
--------------------------|--3--3--3--3--3--3--3--3--|--------------------------|


                                                 NH   NH                        NH     
  E  E  E  E  E  E  E  E     E  E  E  E  E  E    E    E     E  E  E  E  E  E    E  E   
--------------------------|--------------1---------------|----------------------------|
--------------1-----3-----|-----1--------1----------<>5--|----------------------------|
-----2--------2-----2-----|-----2--------2---------------|--------------------<>7--5--|
-----2--------------------|-----3------------------------|-------------------------5--|
--0--0--0--0--0--0--0--0--|--0--0--0--0--0--0--<>5-------|----------------------------|
--------------------------|------------------------------|--3--3--3--3--3--3----------|


  E  E  E  E  E  E  E  E     E  E  E  E  E  E  E  E     E  E  E  E  E  E  E  E   
--------------------------|--------------------------|--------------------------|
--------------------------|--------------------------|--------------------------|
--------------------------|--2--------------0--------|--5--------------4-----2--|
--------------------------|--2--------------2-----3--|--3--------------3-----3--|
--3--3--3--3--3--3--3--3--|--0--0--0--0--0--0--0--0--|--0--0--0--0--0--0--0--0--|
--------------------------|--------------------------|--------------------------|


  E  E  E  E  E  E  E  E     E  E  E  E  E  E  E  E     E  E  E  E  E  E  E  E   
--------------------------|-----3--------------------|--5--------------3-----0--|
--3--------5--------6-----|--------6--5--------------|--5--------------5-----6--|
--0--------0--------0-----|-----5--5--5--------------|--------------------------|
--------------------------|--------------------------|--------------------------|
--------------------------|--3--3--3--3--3--3--3--3--|--0--0--0--0--0--0--0--0--|
--3--3--3--3--3--3--3--3--|--------------------------|--------------------------|


  E  E  E  E  E  E  E  E     E  E  E  E  E  E  E  E     E  E  E  E  E  E  E  E   
--8--------------7-----5--|--------------------------|-----3--------------------|
--6--------------6-----6--|--3--------5--------6-----|--------6--5--------------|
--------------------------|--0--------0--------0-----|-----5--5--5--------------|
--------------------------|--------------------------|--------------------------|
--0--0--0--0--0--0--0--0--|--------------------------|--3--3--3--3--3--3--3--3--|
--------------------------|--3--3--3--3--3--3--3--3--|--------------------------|


  E  E  E  E  E  E  E  E     E  E  E  E  E  E  E  E     E  E  E  E  E  E  E  E   
--------------------------|--------2--4--5--4--2-----|--------------------------|
--5-----------------------|--2--5-----------------5--|--4-----------2-----0-----|
--6-----------------------|--2-----------------------|--4-----------4-----4-----|
--6-----------------------|--------------------------|--4-----------4-----4-----|
--4--4--4--4--4--4--4--4--|--4--4--4--4--4--4--4--4--|--2--2--2--2--2--2--2--2--|
--------------------------|--------------------------|--------------------------|


  E  E  E  S  S E  E  E  E     E  E  E  E  E  E  E  E     E  E  E  E  E  E  E  E   
--0-------------------------|--------------------------|--------------------------|
--0-------------5-----4-----|--5-----------------------|--2-----------------------|
--1-------------6-----4-----|--6-----------------------|--2--------1--2--6--4--6--|
-----------4S-6----6-----4--|--6-----------------------|-----2--4-----------------|
----------------------------|--4--4--4--4--4--4--4--4--|--4--4--4--4--4--4--4--4--|
--0--0--0--0----0--0--0--0--|--------------------------|--------------------------|


                       ^                                            ^            
  E  E  E  E  E  E  E  E     E  E  E  E  E  E  E  E     E  E  E  E  E  E  E  E   
--------------------2--0--|--------------------------|--------------0-----------|
--4-----------------4--0--|--------------------------|--------------1-----------|
--4-----------------4--1--|--------------------------|--2-----------2-----------|
--4--------------------2--|--------------------------|--2-----------2-----------|
--2--2--2--2--2--2--2--2--|--------------------------|--0-----0-----0-----0--0--|
-----------------------0--|-----0--0--0--0-----0-----|--------------------------|


              ^                          ^                          ^            
  E  E  E  E  E  E  E  E     E  E  E  E  E  E  E  E     E  E  E  E  E  E  E  E   
--------------1-----------|--------------------------|--------------0-----------|
--------------1-----------|--------------3-----------|--1-----------1-----------|
--2-----------2-----------|--------------4-----------|--0-----------0-----------|
--3-----------3-----------|--5-----------5-----------|--------------2-----------|
--0-----0-----0-----0--0--|--5-----------5-----------|--3-----3-----3-----3--3--|
--------------------------|--3-----3-----3-----3--3--|--------------------------|


              ^                          ^                          ^            
  E  E  E  E  E  E  E  E     E  E  E  E  E  E  E  E     E  E  E  E  E  E  E  E   
--------------0-----------|--------------1-----------|--------------------------|
--------------1-----------|--------------1-----------|--------------3-----------|
--2-----------2-----------|--2-----------2-----------|--------------4-----------|
--2-----------2-----------|--3-----------3-----------|--5-----------5-----------|
--0--0--0--0--0--0--0--0--|--0--0--0--0--0--0--0--0--|--5-----------5-----------|
--------------------------|--------------------------|--3--3--3--3--3--3--3--3--|


              ^                                                                  
  E  E  E  E  E  E  E  E     E  E  E  E  E  E  E  E     E  E  E  E  E  E  E  E   
--------------0-----------|--------------------------|--------2--4--5--4--2-----|
--1-----------1-----------|--5-----------------------|--2--5-----------------5--|
--0-----------0-----------|--6-----------------------|--2-----------------------|
--------------2-----------|--6-----------------------|--------------------------|
--3--3--3--3--3--3--3--3--|--4-----4-----4-----4--4--|--4-----4-----4-----4--4--|
--------------------------|--------------------------|--------------------------|


  E  E  E  E  E  E  E  E     E  E  E  S  S E  E  E  E     E  E  E  E  E  E  E  E   
--------------------------|--0-------------------------|--------------------------|
--4-----------------------|--0-------------------------|--5-----------------------|
--4-----------6-----4-----|--1-------------6-----------|--6-----------------------|
--4-----------4-----4-----|-----------4S-6----6--------|--6-----------------------|
--6-----6-----6-----6--6--|----------------------7--6--|--4-----4-----4-----4--4--|
--------------------------|--0-----0-------0-----0--0--|--------------------------|


                                                  ^                              
  E  E  E  E  E  E  E  E     E  E  E  E  E  E  E  E     E  E  E  E  E  E  E  E   
--------------------------|-----------------------0--|--------------------------|
--2-----------------------|--4-----------------7--0--|--------------------------|
--2--------1--2--6--4--6--|--4-----------------8--1--|--------------------------|
-----2--4-----------------|--4-----------------9--2--|--------------------------|
--4-----4-----4-----4--4--|--6-----6-----6-----6--2--|--------------------------|
--------------------------|-----------------------0--|--0-----0-----0-----0--0--|


  E  E  E  E  E  E  E  E     E  E  E  E  E  E  E  E     E  E  E  E  E  E  E  E   
--------------------------|--------2--4--5--4--2-----|--------------------------|
--5-----------------------|--2--5-----------------5--|--4-----------------------|
--6-----------------------|--2-----------------------|--4-----------6-----4-----|
--6-----------------------|--------------------------|--4-----------4-----4-----|
--4--4--4--4--4--4--4--4--|--4--4--4--4--4--4--4--4--|--6--6--6--6--6--6--6--6--|
--------------------------|--------------------------|--------------------------|


  E  E  E  S  S E  E  E  E     E  E  E  E  E  E  E  E     E  E  E  E  E  E  E  E   
--0-------------------------|--------------------------|--------------------------|
--0-------------5-----4-----|--5-----------------------|--2-----------------------|
--1-------------6-----4-----|--6-----------------------|--2--------1--2--6--4--6--|
-----------4S-6----6-----4--|--6-----------------------|-----2--4-----------------|
----------------------------|--4--4--4--4--4--4--4--4--|--4--4--4--4--4--4--4--4--|
--0--0--0--0----0--0--0--0--|--------------------------|--------------------------|


                       ^        ^  ^  ^  ^  ^  ^  ^     ^  v  ^  v  ^  v  ^  v   
  E  E  E  E  E  E  E  E     E  E  E  E  E  E  E  E     E  E  E  E  E  E  E  E   
-----------------------0--|-----0--0--0--0--0--0--0--|--------------------------|
--4-----------------7--0--|-----0--0--0--0--0--0--0--|--5--5--5--5--5--5--5--5--|
--4-----------------8--1--|-----1--1--1--1--1--1--1--|--6--6--6--6--6--6--6--6--|
--4-----------------9--2--|-----2--2--2--2--2--2--2--|--6--6--6--6--6--6--6--6--|
--6--6--6--6--6--6--6--2--|-----2--2--2--2--2--2--2--|--4--4--4--4--4--4--4--4--|
-----------------------0--|-----0--0--0--0--0--0--0--|--------------------------|


  ^  v  ^  v  ^  v  ^  v     ^  v  ^  v  ^  v  ^  v     ^  v  ^  v  ^  v  ^  v   
  E  E  E  E  E  E  E  E     E  E  E  E  E  E  E  E     E  E  E  E  E  E  E  E   
--------------------------|--------------------------|--0--0--0--0--0--0--0--0--|
--5--5--5--5--5--5--5--5--|--7--7--7--7--7--7--7--7--|--0--0--0--0--0--0--0--0--|
--6--6--6--6--6--6--6--6--|--8--8--8--8--8--8--8--8--|--1--1--1--1--1--1--1--1--|
--7--7--7--7--7--7--7--7--|--9--9--9--9--9--9--9--9--|--2--2--2--2--2--2--2--2--|
--4--4--4--4--4--4--4--4--|--6--6--6--6--6--6--6--6--|--2--2--2--2--2--2--2--2--|
--------------------------|--------------------------|--0--0--0--0--0--0--0--0--|


  ^  v  ^  v ^ v ^ v  ^  v     ^  v  ^  v ^ v ^ v  ^  v     ^  v  ^  v ^ v ^ v  ^  v   
  E  E  E  S S S S E  E  E     E  E  E  S S S S E  E  E     E  E  E  S S S S E  E  E   
----------------------------|----------------------------|----------------------------|
--5--5--5--5-5-5-5-5--5--5--|--5--5--5--5-5-5-5-5--5--5--|--7--7--7--7-7-7-7-7--7--7--|
--6--6--6--6-6-6-6-6--6--6--|--6--6--6--6-6-6-6-6--6--6--|--8--8--8--8-8-8-8-8--8--8--|
--6--6--6--6-6-6-6-6--6--6--|--7--7--7--7-7-7-7-7--7--7--|--9--9--9--9-9-9-9-9--9--9--|
--4--4--4--4-4-4-4-4--4--4--|--4--4--4--4-4-4-4-4--4--4--|--6--6--6--6-6-6-6-6--6--6--|
----------------------------|----------------------------|----------------------------|


  ^  v  ^  v ^ v ^ v  ^  v     ^                  
  E  E  E  S S S S E  E  E     W                  
--0--0--0--0-0-0-0-0--0--0--|--0----------------||
--0--0--0--0-0-0-0-0--0--0--|--0----------------||
--1--1--1--1-1-1-1-1--1--1--|--1----------------||
--2--2--2--2-2-2-2-2--2--2--|--2----------------||
--2--2--2--2-2-2-2-2--2--2--|--2----------------||
--0--0--0--0-0-0-0-0--0--0--|--0----------------||




Duration Legend
---------------
W - whole
H - half
Q - quarter
E - 8th
S - 16th
T - 32nd
X - 64th
. - note dotted
|-n-|  - n-tuplets


Tablature Legend
----------------
NH - natural harmonic
S - shift slide
^ - brush up
v - brush down
        
Comments

@Parhelion (December 31, 2011 at 9:31 PM)

I really like what you did with this one.


@ChelseaRare (December 31, 2011 at 11:09 PM)

Sweet arrangement.


@JordanVS (January 02, 2012 at 4:41 PM)

i was hoping you would tab this song. great job :)