Gametabs
Home
Tabs
Random

Slash Beast Stage

Average rating: 5.000

2 ratings

Composer:

Tabber:

Style:

Instrument:

Created: December 02, 2021 at 12:00 AM

            Slash Beast Stage
Mega Man X4
Composed by Toshihiko Horiyama
Arranged by William Geesdorf


     E.  E.  Q    Q    E     E.  E.  Q    Q    E     E.  E.  Q    Q    E   
E||--0---0---0----0----0--|--0---0---0----0----0--|--0---0---0----0----0--|
B||-----------------------|-----------------------|-----------------------|
G||--2---2---2----2----2--|--2---2---2----2----2--|--2---2---2----2----2--|
D||-----------------------|-----------------------|-----------------------|
A||--4---4---4----4----4--|--3---3---3----3----3--|--4---4---4----4----4--|
E||-----------------------|-----------------------|-----------------------|


  Q    Q    E.  E.  E     E.  E.  Q    Q    E     E.  E.  Q    Q    E   
--0--------------------|--0---0---0----0----0--|--0---0---0----0----0--|
-----------------------|-----------------------|-----------------------|
--2--------------------|--2---2---2----2----2--|--2---2---2----2----2--|
-----------------------|-----------------------|-----------------------|
--3----3----3---3---L--|--4---4---4----4----4--|--3---3---3----3----3--|
-----------------------|-----------------------|-----------------------|


  E.  E.  Q    Q    E     Q    Q    E  E  E  E     E  E  E  E  E  E  E  E   
--0---0---0----0----0--|--3---------------------|--------------------------|
-----------------------|------------------------|--------------------------|
--2---2---2----2----2--|--2---------------------|--------------------------|
-----------------------|------------------------|--------------------------|
--4---4---4----4----4--|--3----3----3--3--3--3--|--3--3--3--3--3--3--3--5--|
-----------------------|------------------------|--------------------------|


    E  E  E  E  Q    E  E     E  E  E  Q    E  Q       E  E  E  E  Q    E  E   
|--------------------------|------------------------|-------------------3--2--|
|--------------------3--2--|-----------2------------|--------------3----------|
|*--------------0----------|--------2-------2-------|--------0----------------|
|*--------0----------------|-----2-------------2----|-----2-----2-------------|
|------2-----2-------------|------------------------|-------------------------|
|---0----------------------|--0---------------------|--0----------------------|


  E  E  E  Q    E  E  E     E  E  E  E  Q    E  E     E  E  E  Q    E  E  E   
-----------3----2--0-----|-------------------------|----------------------0--|
--------2-------------3--|-------------------3--2--|-----------2-------3-----|
-----2-------------------|--------------0----------|--------2-------2--------|
-------------------------|--------0----------------|-----2-------------------|
-------------------------|-----2-----2-------------|-------------------------|
--0----------------------|--0----------------------|--0----------------------|


  E  E  E  Q    E  E  E     E  E  E  Q    E  Q       E  E  E  E  Q    E  E   
--2--------2----0--------|------------------------|-------------------------|
--------0----------3--2--|-----------2------------|-------------------3--2--|
-----0-------------------|--------2-------2-------|--------------0----------|
-------------------------|-----2-------------2----|--------0----------------|
-------------------------|------------------------|-----2-----2-------------|
--0----------------------|--0---------------------|--0----------------------|


  E  E  E  Q    E  Q       E  E  E  E  Q    E  E     E  E  E  Q    E  Q     
------------------------|-------------------3--2--|-----------3-------5----|
-----------2------------|--------------3----------|--------2-------2-------|
--------2-------2-------|--------0----------------|-----2------------------|
-----2-------------2----|-----2-----2-------------|------------------------|
------------------------|-------------------------|------------------------|
--0---------------------|--0----------------------|--0---------------------|


  E  E  E  E  Q    E  E     E  E  E  Q    E  E  E     E  E  E  Q    E  E  E   
-------------------------|----------------------0--|--------0--2----0--2--3--|
-------------------3--2--|-----------2----2--3-----|-----3-------------------|
--------------0----------|--------2----------------|-------------------------|
--------0----------------|-----2-------------------|-------------------------|
-----2-----2-------------|-------------------------|-------------------------|
--0----------------------|--0----------------------|--0----------------------|

                      1st Ending
  W                   E  E  E  E  E  Q    E     E  E  E  E  E  Q    E   
--5----------------|--------3-----2--0-------|--------5-----3--2-------|
-------------------|-------------------------|-------------------------|
--6----------------|-----0-----0----------0--|-----0-----0----------0--|
-------------------|-------------------------|-------------------------|
-------------------|--3----------------------|--3----------------------|
--0----------------|-------------------------|-------------------------|


  E  E  Q    E  Q    E     E  E  E  Q    E  E  E     E  E  E  E  E  Q    E   
------------------------|-------------------------|--------3-----2--0-------|
--------0------------1--|-----------0-------------|-------------------------|
-----0-------2--0-------|--------0-------2--0-----|-----0-----0----------0--|
------------------------|-----2----------------4--|-------------------------|
--3---------------------|--3----------------------|--3----------------------|
------------------------|-------------------------|-------------------------|


  E  E  E  E  E  Q    E     E  E  Q    E  Q    E     E  E  E  Q    E  Q     
--------5-----3--2-------|------------------------|------------------------|
-------------------------|--------0------------1--|-----------1------------|
-----0-----0----------0--|-----0-------2--0-------|--------0-------0-------|
-------------------------|------------------------|-----2-------------2----|
--3----------------------|--3---------------------|--3---------------------|
-------------------------|------------------------|------------------------|


  E  E  E  Q    E  E  E     E  E  E  Q    Q    E     Q    E  Q     Q    E   
--0--------2----3--------|--0--------2----3----8--|--7---------------------|
--------0----------0-----|--------0---------------|----------0----10----8--|
-----0----------------0--|-----0------------------|-------0----------------|
-------------------------|--0---------------------|------------------------|
-------------------------|------------------------|------------------------|
--0----------------------|------------------------|--8---------------------|


   Q    E  Q    E  Q       E  E  E  Q    E  E  E     E  E  E  Q    Q    E   
------------------------|--0--------2----3--------|--0--------2----3----5--|
--10-------0------------|--------0----------0-----|--------0---------------|
--------0-------0-------|-----0----------------0--|-----0------------------|
---0---------------1----|-------------------------|--0---------------------|
------------------------|-------------------------|------------------------|
------------------------|--0----------------------|------------------------|

                                                     2nd Ending
  Q    E  Q    Q    E     E  E  E  Q    E  Q         E  E  E  E  E  Q    E   
--3------------2----3--|-------------------------||--------3-----2--0-------|
----------3------------|-----------0-------------||-------------------------|
-------2---------------|--------0-------0-------*||-----0-----0----------0--|
--0--------------------|-----0-------------0----*||-------------------------|
-----------------------|-------------------------||--3----------------------|
-----------------------|--3----------------------||-------------------------|


  E  E  E  E  E  Q    E     E  E  Q    E  Q    E     E  E  E  Q    E  E  E   
--------5-----3--2-------|------------------------|-------------------------|
-------------------------|--------0------------1--|-----------0-------------|
-----0-----0----------0--|-----0-------2--0-------|--------0-------2--0-----|
-------------------------|------------------------|-----2----------------4--|
--3----------------------|--3---------------------|--3----------------------|
-------------------------|------------------------|-------------------------|


  E  E  E  E  E  Q    E     E  E  E  E  E  Q    E     E  E  Q    E  Q    E   
--------3-----2--0-------|--------5-----3--2-------|------------------------|
-------------------------|-------------------------|--------0------------1--|
-----0-----0----------0--|-----0-----0----------0--|-----0-------2--0-------|
-------------------------|-------------------------|------------------------|
--3----------------------|--3----------------------|--3---------------------|
-------------------------|-------------------------|------------------------|


  E  E  E  H        E     E  E  Q    E  Q    E     E  E  Q    E  Q.      
-----------------------|--------3----2--0-------|--------5----3--2------|
-----------1--------L--|------------------------|-----------------------|
--------0-----------L--|--------0---------------|--------0--------------|
-----2--------------L--|------------------------|-----------------------|
--3-----------------L--|--3--3--3------------3--|--3--3--3--------------|
-----------------------|------------------------|-----------------------|


  E  E  Q    E  Q    E     E  E  E  Q    E  E  E     E  E  E  E  E  Q    E   
------------------------|-------------------------|--------3-----2--0-------|
--------0------------1--|-----------0-------------|-------------------------|
--------0----2--0-------|----------------2--0-----|-----0-----0----------0--|
------------------------|----------------------4--|-------------------------|
--3--3--3------------3--|--3--3--3----------------|--3----------------------|
------------------------|-------------------------|-------------------------|


  E  E  E  E  E  Q    E     E  E  Q    E  Q    E     E  E  E  Q    E  Q     
--------5-----3--2-------|------------------------|------------------------|
-------------------------|--------0------------1--|-----------1------------|
-----0-----0----------0--|-----0-------2--0-------|--------0-------0-------|
-------------------------|------------------------|-----2-------------2----|
--3----------------------|--3---------------------|--3---------------------|
-------------------------|------------------------|------------------------|


    E  E  E  Q    E  E  E     E  E  E  Q    Q    E     Q    E  Q     Q    E   
|---0--------2----3--------|--0--------2----3----8--|--7---------------------|
|---------0----------0-----|--------0---------------|----------0----10----8--|
|*-----0----------------0--|-----0------------------|-------0----------------|
|*-------------------------|--0---------------------|------------------------|
|--------------------------|------------------------|------------------------|
|---0----------------------|------------------------|--8---------------------|


   Q    E  Q    E  Q       E  E  E  Q    E  E  E     E  E  E  Q    Q    E   
------------------------|--0--------2----3--------|--0--------2----3----5--|
--10-------0------------|--------0----------0-----|--------0---------------|
--------0-------0-------|-----0----------------0--|-----0------------------|
---0---------------1----|-------------------------|--0---------------------|
------------------------|-------------------------|------------------------|
------------------------|--0----------------------|------------------------|


  Q    E  Q    Q    E     E  E  E  Q    E  Q         E.  E.  Q    Q    E   
--3------------2----3--|-------------------------||--0---0---0----0----0--|
----------3------------|-----------0-------------||-----------------------|
-------2---------------|--------0-------0-------*||--2---2---2----2----2--|
--0--------------------|-----0-------------0----*||-----------------------|
-----------------------|-------------------------||--4---4---4----4----4--|
-----------------------|--3----------------------||-----------------------|


  E.  E.  Q    Q    E     E.  E.  Q    Q    E     Q    Q    E.  E.  E   
--0---0---0----0----0--|--0---0---0----0----0--|--0--------------------|
-----------------------|-----------------------|-----------------------|
--2---2---2----2----2--|--2---2---2----2----2--|--2--------------------|
-----------------------|-----------------------|-----------------------|
--3---3---3----3----3--|--4---4---4----4----4--|--3----3----3---3---L--|
-----------------------|-----------------------|-----------------------|


  E.  E.  Q    Q    E     E.  E.  Q    Q    E     E.  E.  Q    Q    E   
--0---0---0----0----0--|--0---0---0----0----0--|--0---0---0----0----0--|
-----------------------|-----------------------|-----------------------|
--2---2---2----2----2--|--2---2---2----2----2--|--2---2---2----2----2--|
-----------------------|-----------------------|-----------------------|
--4---4---4----4----4--|--3---3---3----3----3--|--4---4---4----4----4--|
-----------------------|-----------------------|-----------------------|


  Q    Q    E  E  E  E     E.  E.  Q    Q    E     E.  E.  Q    Q    E   
--3---------------------|--0---0---0----0----0--|--0---0---0----0----0--|
------------------------|-----------------------|-----------------------|
--2---------------------|--2---2---2----2----2--|--2---2---2----2----2--|
------------------------|-----------------------|-----------------------|
--3----3----3--3--3--3--|--4---4---4----4----4--|--3---3---3----3----3--|
------------------------|-----------------------|-----------------------|


  E.  E.  Q    Q    E     Q    Q    E.  E.  E     E.  E.  Q    Q    E   
--0---0---0----0----0--|--0--------------------|--0---0---0----0----0--|
-----------------------|-----------------------|-----------------------|
--2---2---2----2----2--|--2--------------------|--2---2---2----2----2--|
-----------------------|-----------------------|-----------------------|
--4---4---4----4----4--|--3----3----3---3---L--|--4---4---4----4----4--|
-----------------------|-----------------------|-----------------------|


  E.  E.  Q    Q    E     E.  E.  Q    Q    E     W                 
--0---0---0----0----0--|--0---0---0----0----0--|--3----------------|
-----------------------|-----------------------|-------------------|
--2---2---2----2----2--|--2---2---2----2----2--|--2----------------|
-----------------------|-----------------------|-------------------|
--3---3---3----3----3--|--4---4---4----4----4--|--3----------------|
-----------------------|-----------------------|-------------------|


  W                  
--L----------------||
-------------------||
--L----------------||
-------------------||
--L----------------||
-------------------||




Duration Legend
---------------
W - whole
H - half
Q - quarter
E - 8th
S - 16th
T - 32nd
X - 64th
. - note dotted
|-n-|  - n-tuplets


Tablature Legend
----------------
L - tied note
        
Comments

No comments yet