Gametabs
Home
Tabs
Random

Opening Stage X

Average rating: 5.000

6 ratings

Composer:

Tabber:

Style:

Instrument:

Created: March 12, 2013 at 12:00 AM

            X's Theme                                         
Opening Stage
Mega Man X4
Toshihiko Horiyama
JordanVS


*Capo on the 4th fret!




     E.  E.  Q    E  E  E     E  E  E  E  E  E  E  E     E  E  E  E  E  E  E  E   
E||------------------------|--------------------------|--------------------------|
B||------------------------|--------------------------|--------------------------|
G||--2---0-----------------|--2-----------------------|--0-----------------------|
D||----------3----2--0-----|--2-----------------------|--0-----------------------|
A||---------------------3--|--3-----------------------|--2-----------------------|
E||------------------------|--5--5--5--5--5--5--5--5--|--3--3--3--3--3--3--3--3--|


  E  E  E  E  E  E  E  E     E  E  E  E  E  E  E  E     E  E  E  E  E  E  E  E   
--------------------------|--------------------------|--5-----------------------|
--------------------------|--------------------------|--5-----------------------|
--------------------------|--------------------------|--5-----------------------|
--4-----------------------|--3-----------5-----------|--------------------------|
--3-----------------------|--3-----------5-----------|--0--0--0--0--0--0--0--0--|
--2--2--2--2--2--2--2--2--|--1--1--1--1--3--3--3--3--|--------------------------|


  E  E  E  E  E  E  E  E     E  E  E  E  E  E  E  E     E  E  E  E  E  E  E  E   
--3-----------------------|--2-----------------------|--1-----------3-----------|
--3-----------------------|--1-----------------------|--1-----------3-----------|
--4-----------------------|--------------------------|--2-----------4-----------|
--------------------------|--------------------------|--------------------------|
--------------------------|--------------------------|--------------------------|
--3--3--3--3--3--3--3--3--|--2--2--2--2--2--2--2--2--|--1--1--1--1--3--3--3--3--|


  E  E  E  E  E  E  E  E     E  E  E  E  E  E  E  E     E  E  E  E  E  E  E  E   
--------------------------|-----------------0--------|--------------------------|
--------------------------|-----------------0--------|-----------------1--------|
--------2-----2--0-----2--|--------2-----2--------2--|--------2-----2--------2--|
--------2--------------2--|--------0--------------0--|--------4-----------------|
--0--0--0--0--0--0--0--0--|--------------------------|--------------------------|
--------------------------|--3--3--3--3--3--3--3--3--|--2--2--2--2--2--2--2--2--|


  E  E  E  E  E  E  E  E     E  E  E  E  E  E  E  E     E  E  E  E  E  E  E  E   
--------------------------|--------------------------|-----------------0--------|
--------------------------|--------------------------|-----------------0--------|
--2-----------0-----------|--------2-----2--0-----2--|--------2-----2--------2--|
--3-----------0-----------|--------2-----------------|--------0--------------0--|
--------------------------|--0--0--0--0--0--0--0--0--|--------------------------|
--1--1--1--1--3--3--3--3--|--------------------------|--3--3--3--3--3--3--3--3--|


  E  E  E  E  E  E  E  E     E  E  E  E  E  E  E  E     Q    Q    E.  S E.  S  
--------------------------|--------------------------|------------------------|
-----------------1--------|--------------------------|------------------------|
--------2-----2--------2--|--2-----------0-----------|------------------------|
--------4-----------------|--3-----------0-----------|------------------------|
--------------------------|--3-----------2-----------|--x----x----x---x-x---x-|
--2--2--2--2--2--2--2--2--|--1--1--1--1--3--3--3--3--|--3---------------------|


  Q    Q    E.  E.  E     E  E  E  E  E  S S E  E     E  E  E  E  E  E  E  E   
------------1---0------|--------------0------------|--------------------------|
--------------------3--|-------------------3----1--|--------------------1-----|
-----------------------|--2-----------2------------|--0-----------------0-----|
-----------------------|--2------------------------|--0-----------------------|
--x----x---------------|--0--0--0--0--0--0---0--0--|--2-----------------------|
-----------------------|---------------------------|--3--3--3--3--3--3--3--3--|


  E  E  E  E  E  E  E  E     E  E  E  E  E  S S E  E     E  E  E  E  E  S S E  E   
--------------------------|--------------1----0-------|--------------0------------|
--------------0-----------|--1-----------0---------3--|-------------------3----1--|
-----------------------5--|--2-----------0------------|--2-----------2------------|
--4-----------------------|--3------------------------|--2------------------------|
--3-----------------------|---------------------------|--0--0--0--0--0--0---0--0--|
--2--2--2--2--2--2--2--2--|--1--1--1--1--3--3---3--3--|---------------------------|


  E  E  E  E  E  E  E  E     E  E  E  E  E  E  E  E     E  E  E  E  E  E  E  E   
--------------------------|--------------------------|--------------------------|
--------------------1-----|--------------0-----------|--1-----------0-----------|
--0-----------------0-----|-----------------------5--|--2-----------0-----------|
--0-----------------------|--4-----------------------|--3-----------0-----------|
--2-----------------------|--3-----------------------|--------------------------|
--3--3--3--3--3--3--3--3--|--2--2--2--2--2--2--2--2--|--1--1--1--1--3--3--3--3--|


  E  E  E  E  E  E  E  E     E  E  E  E  E  E  E  E     E  E  E  E  E  E  E  E   
--------------------------|--0-----------------1--0--|--------------------0-----|
--------------------1--3--|--0-----------------0--0--|--3--------------------3--|
--2-----------------------|--0-----------------------|--2-----------------------|
--2-----------------------|--------------------------|--4-----------------------|
--0--0--0--0--0--0--0--0--|--------------------------|--------------------------|
--------------------------|--3--3--3--3--3--3--3--3--|--2--2--2--2--2--2--2--2--|


  E  E  E  E  E  E  E  E     E  E  E  E  E  E  E  E     E  E  E  E  E  E  E  E   
--------------------------|--------------------------|--0-----------------1--0--|
--1-----------0-----------|--------------------1--3--|--0-----------------0--0--|
--2-----------0-----------|--------2-----------------|--0-----------------------|
--3-----------0-----------|--------2-----------------|--------------------------|
--------------------------|--0--0--0--0--0--0--0--0--|--------------------------|
--1--1--1--1--3--3--3--3--|--------------------------|--3--3--3--3--3--3--3--3--|


  E  E  E  E  E  E  E  E     E  E  E  E  E  E  E  E     E.  Q    E  Q    E.    
--------------------------|--1-----0-----------------|-----------------------||
--------------------------|--1-----------3-----1-----|-----------------------||
--2-----------0-----------|--------------2-----------|------2----2--0----2---||
--4-----------------------|--------------------------|------2----2--0----2---||
--------------------------|--------------------------|--0---0----0-------0---||
--2--2--2--2--2--2--2--2--|--1--1--1--1--3--3--3--3--|-----------------------||






Duration Legend
---------------
W - whole
H - half
Q - quarter
E - 8th
S - 16th
. - note dotted


Tablature Legend
----------------
L - tied note
x - dead note
^ - brush up
v - brush down
        
Comments

@Magna-Zero (March 13, 2013 at 2:02 AM)

Nice version!, simply amazing :D


@ChelseaRare (March 13, 2013 at 11:08 PM)

Nice