Gametabs
Home
Tabs
Random

Magma Dragoon Stage

Average rating: 5.000

2 ratings

Composer:

Tabber:

Style:

Instrument:

Created: January 09, 2010 at 12:00 AM

            Magma Dragoon Stage
Megaman X4
Composed by Toshihiko Horiyama
Tabbed by FireM
01/08/10

e--2-4-6-7-6-4-9-7-6-4-6-----2-4-6-7-6-4-2-4-2-1
B-----------------------------------------------
G-----------------------------------------------
D-----------------------------------------------
A-----------------------------------------------
E-----------------------------------------------

e----1-3---1-3-4-3-1---------1-3---1-3-4-3-1-----1----
B--4-----4-----------4-1---4-----4-----------3-4---3-3
G-----------------------------------------------------
D-----------------------------------------------------
A-----------------------------------------------------
E-----------------------------------------------------

e--2-4-6-7-6-4-9-7-6-4-6-----2-4-6-7-6-4-2-4-2-1
B-----------------------------------------------
G-----------------------------------------------
D-----------------------------------------------
A-----------------------------------------------
E-----------------------------------------------

e----1-3---1-3-4-3-1---------1-3---1-3-4-3-1-----1----
B--4-----4-----------4-1---4-----4-----------3-4---3-3
G-----------------------------------------------------
D-----------------------------------------------------
A-----------------------------------------------------
E-----------------------------------------------------

e--6--1-2-4-5-6-7-6--18-16
B-------------------------
G-------------------------
D-------------------------
A-------------------------
E-------------------------

e--6--4-7-6-4-2-1-18-16-14-16-14-13-9
B------------------------------------
G------------------------------------
D------------------------------------
A------------------------------------
E------------------------------------

e--2-4-6-7-9-7-10-11---2-4-6-7-9-7-10-
B-------------------------------------
G-------------------------------------
D-------------------------------------
A-------------------------------------
E-------------------------------------

        
Comments

@Mooha (January 29, 2011 at 11:26 PM)

Another Good X Tab.

Picked the majority of it up after 5 mins or so.

Ty!