Gametabs
Home
Tabs
Random

Tunnel Rhino

Average rating: 5.000

2 ratings

Composer:

Tabber:

Style:

Instrument:

Created: August 24, 2012 at 12:00 AM

            08/23/2012


Mega Man x3.Tunnel Rhino

Tabbled by Kenkiske...


INTRO.

|-------------------------------|
|-------------------------------|
|-------------------------------|
|--5-5-5------5-5-5------5~~----|
|--3-3-3-6-8--3-3-3-6-8--3~~----|
|--------4-6--------4-6---------|

THEN..

|--------------------------------|
|--------------------------------|
|--------------------------------|   2x
|--5--------5--------5-------10--|
|--3-6-8-5--3-6-8-5--3-6-8-5--8--|
|----4-6-3----4-6-3----4-6-3-----|

|--------------------------------|
|--------------------------------|
|--------------------------------|
|--12-8-10-7-8-5-7---------------|
|--10-6--8-5-6-3-5-8-6-5--4-5----|
|------------------6-4-3--2-3----|


|-----------------------------------|
|-----------------------------------|
|-----------------------------------|
|--12-8-10-7-8-5-7-8-10-12-8-/10/12-|
|--10-6--8-5-6-3-5-6--8-10-6--/8/10-|
|-----------------------------------|

|-----------------------------------|
|--13-13-13-13~--13-13-13-13-16-15~-|
|-----------------------------------|   X3
|-----------------------------------|
|-----------------------------------|
|-----------------------------------|

|------------------|
|--------11-10-9~--|
|--11-12-----------|
|------------------|
|------------------|
|------------------|

REPEAT ALL UNTIL FADE..

        
Comments

No comments yet