Gametabs
Home
Tabs
Random

Title Screen

Average rating: 3.000

1 ratings

Composer:

Tabber:

Style:

Instrument:

Created: April 26, 2013 at 12:00 AM

            Title - Mega Man x3


tab by kenkiske


Guitar :

|----------------------------------------------------------|
|----------------------------------------------------------|
|----------------------------------------------------------|
|--14--14-14-14---4--7--9-10-11--4--7--10--9--6------------|
|--12--12-12-12---2--5--7--8--9--2--5---8--7--4------------|
|----------------------------------------------------------|

|----------------------------------------------------------|
|----------------------------------------------------------|
|----------------------------------------------------------|
|--4--7--9-10-11--14-16--14-14-14--14--14-15-16------------|
|--2--5--7--8--9--12-14--12-12-12--12--12-13-14------------|
|----------------------------------------------------------|
        
Comments

No comments yet