Gametabs
Home
Tabs
Random

Password

Average rating: 3.000

1 ratings

Composer:

Tabber:

Style:

Instrument:

Created: March 03, 2012 at 12:00 AM

            Megaman X3
Music: PASSWORD
Tabber: KENKISKE
03/02/2012

RIFF

|-------------------------------------------------|
|-------------------------------------------------|
|----------------------------------------4--------|
|----------------2--2--1-2-2---4--4--4-6-4--------|
|--4--4--2-4-4---2--2--1-2-2---4--4--4-6----------|
|--4--4--2-4-4------------------------------------|

|-----------------|
|-----------------|
|-----------------|
|--------2--------|
|--4--4--2-5-4----|
|--4--4----5-4----|

repeat to fade
        
Comments

No comments yet