Gametabs
Home
Tabs
Random

Neon Tiger

Average rating: 5.000

2 ratings

Composer:

Tabber:

Style:

Instrument:

Created: January 07, 2010 at 12:00 AM

            Neon Tiger
By Kinuyo Yamashita	
Mega Man X3
Tabbed by Brainsick Fungus 
12/28/09



e------------------8-8-8--7-7-7-7-6--|
B-6-6-6--4-4-4-4-6-8-8-8--7-7-7-7-6--|
G-5-5-5--3-3-3-3-5-------------------|
D------------------------------------| x4
A------------------------------------|
E------------------------------------|

e-8---7-7-6------------4---------|  |-8---7--6------------4-3-1------|
B-8---7---6--6-6-6-4-6-4-4-6-----|  |-8---7--6--6-6-6-4-6-4-3-1------|
G------------5-5-5-3-5---3-5-----|  |-----------5-5-5-3-5------------|
D--------------------------------|  |--------------------------------|
A--------------------------------|  |--------------------------------|
E--------------------------------|  |--------------------------------|

e-8---7-7-6------------4---------|  |-8---7--6--8--------------------|
B-8---7---6--6-6-6-4-6-4-4-6-----|  |-8---7--6--8--------------------|
G------------5-5-5-3-5---3-5-----|  |--------------------------------|
D--------------------------------|  |--------------------------------|
A--------------------------------|  |--------------------------------|
E--------------------------------|  |--------------------------------|

e--------------------------------|  |-------------------4------------|
B-6-6-6--4-4-4-4--4----6--6-6-4--|  |-6-6-6--4-4-4-4--4-4--6--6-6-4--|
G-5-5-5--3-3-3-3--3-5--5--5-5-3--|  |-5-5-5--3-3-3-3--3----5--5-5-3--|
D-------------------5------------|  |--------------------------------|
A--------------------------------|  |--------------------------------|
E--------------------------------|  |--------------------------------|

e--------------------------------|  |-------------------4------------|
B-6-6-6--4-4-4-4--4----6--6-6-4--|  |-6-6-6--4-4-4-4--4-4--6---------|
G-5-5-5--3-3-3-3--3-5--5--5-5-3--|  |-5-5-5--3-3-3-3--3----5---------|
D-------------------5------------|  |--------------------------------|
A--------------------------------|  |--------------------------------|
E--------------------------------|  |--------------------------------|

        
Comments

@plainlazy (January 11, 2010 at 12:43 PM)

Never played Megaman X3, but I'm quite enjoying the tune. Pretty fun to play and pretty simple to learn too. Thanks~


@Kenkiske (February 29, 2012 at 12:51 AM)

that's perfect man!