Gametabs
Home
Tabs
Random

Wheel Gator

Average rating: 5.000

1 ratings

Composer:

Tabber:

Style:

Instrument:

Created: November 19, 2009 at 12:00 AM

            Wheel Gator
Mega Man X2
Yuki Iwai
ltm_1988
10/28/09

e|-16----16-15-14----14-13-16----16-15-14----14-13---------------------------|
B|----16----------14----------16----------14---------------------------------|
G|---------------------------------------------------------------------------|
D|---------------------------------------------------------------------------|
A|---------------------------------------------------------------------------|
E|---------------------------------------------------------------------------|

e|--11-9---------9------------11-9--------------9----------------------------|
B|-------12-12-9---12-9-9-7-8------12-12-9-9-12---12-9-9-7-8-----------------|
G|---------------------------------------------------------------------------|
D|---------------------------------------------------------------------------|
A|---------------------------------------------------------------------------|
E|---------------------------------------------------------------------------|

e|-11-9---------9-10-11---------11-9--------------9--------------------------|
B|------12-12-9---------9-9-7-8------12-12-9-12-9---9-9-7-8------------------|
G|---------------------------------------------------------------------------|
D|---------------------------------------------------------------------------|
A|---------------------------------------------------------------------------|
E|---------------------------------------------------------------------------|

e|-------10-13-12-------------18-17-------17-------17------------------------|
B|----------------14-15-------------16-17----16-17----16---------------------|
G|-11-12----------------15-14------------------------------------------------|
D|---------------------------------------------------------------------------|
A|---------------------------------------------------------------------------|
E|---------------------------------------------------------------------------|

e|-10----------10----------9---------9---------------------------------------|
B|----11-10-11----11-10-11---10-9-10---10-9-10-------------------------------|
G|---------------------------------------------------------------------------|
D|---------------------------------------------------------------------------|
A|---------------------------------------------------------------------------|
E|---------------------------------------------------------------------------|

e|-10----------13----------9----12----9----12--------------------------------|
B|----11-10-11----11-10-11---10----10---10----10-----------------------------|
G|---------------------------------------------------------------------------|
D|---------------------------------------------------------------------------|
A|---------------------------------------------------------------------------|
E|---------------------------------------------------------------------------|

Now, down an octave

e|-4---4-3-2---2-1-4---4-3-2---2-1-------------------------------------------|
B|---4-------2-------4-------2-----------------------------------------------|
G|---------------------------------------------------------------------------|
D|---------------------------------------------------------------------------|
A|---------------------------------------------------------------------------|
E|---------------------------------------------------------------------------|

e|---------------------------------------------------------------------------|
B|-4-2-0-0---2-0---------4-2-0-0---0-2-0-------------------------------------|
G|---------1-----1-1---0---------1-------1-1---0-----------------------------|
D|-------------------4-----------------------4-------------------------------|
A|---------------------------------------------------------------------------|
E|---------------------------------------------------------------------------|

e|---------------------------------------------------------------------------|
B|-4-2-0-0---2-3-4---------4-2-0-0---0---2-----------------------------------|
G|---------1-------1-1---0---------1---1---1-1---0---------------------------|
D|---------------------4-----------------------4-----------------------------|
A|---------------------------------------------------------------------------|
E|---------------------------------------------------------------------------|

e|-------------------6-5-----5-----5-----------------------------------------|
B|-------6-5-------------4-5---4-5---4---------------------------------------|
G|-----7-----6-7-------------------------------------------------------------|
D|-4-5-----------8-7---------------------------------------------------------|
A|---------------------------------------------------------------------------|
E|---------------------------------------------------------------------------|

e|-----------------------------------------1-----------0-------0-------------|
B|-3-------3-------2-------2-------3---------------2-------2-----------------|
G|---3-2-3---3-2-3---2-1-2---2-1-2---3-2-3---3-2-3---2---2---2---2-----------|
D|---------------------------------------------------------------------------|
A|---------------------------------------------------------------------------|
E|---------------------------------------------------------------------------|

        
Comments

No comments yet