Gametabs
Home
Tabs
Random

Opening Stage

Average rating: 5.000

2 ratings

Composer:

Tabber:

Style:

Instrument:

Created: March 17, 2010 at 12:00 AM

            Guitar 1

                                                           PH                            
                                                           E     E   E   Q.      E   E   
E||-----|----|----|----|----|----|----|----|----|----|--------------20--15------20--17--|
B||-----|----|----|----|----|----|----|----|----|----|--<>18pbr--L----------------------|
G||*----|----|----|----|----|----|----|----|----|----|----------------------------------|
D||*----|----|----|----|----|----|----|----|----|----|----------------------------------|
A||-----|----|----|----|----|----|----|----|----|----|----------------------------------|
E||-----|----|----|----|----|----|----|----|----|----|----------------------------------|


  E   E   E   Q     E   E   E      E   E   E   E   E   E   Q        E   E   E   E   E   E   Q     
--L--15------------15----------|--18------------------15--------|--15----------------------------|
---------18--17--------18------|----------18--17--18------------|----------17--15--17--18--------|
---------------------------17--|------15------------------17----|------17------------------17----|
-------------------------------|--------------------------------|--------------------------------|
-------------------------------|--------------------------------|--------------------------------|
-------------------------------|--------------------------------|--------------------------------|


                                                                                     PH                  
   H        E   E   E   E      H        E   E   E   E      W                   E     Q.      Q     Q     
-----------------------15--|--17--------L--15--17--18--|--20----------------|---------------20----------|
--18--------L--17--18------|---------------------------|--------------------|-----<>17------------17----|
---------------------------|---------------------------|--------------------|---------------------------|
---------------------------|---------------------------|--------------------|---------------------------|
---------------------------|---------------------------|--------------------|---------------------------|
---------------------------|---------------------------|--------------------|---------------------------|


          H        Q     E   E      H        E      Q     E      Q     E   H        E         
-------|------------------------|---------------12g15--------|-------------------------|-----|
-------|----------------15--17--|--18--------L-----------18--|--17----15---------------|-----|
-------|------------------------|----------------------------|------------17--------L--|-----|
-------|------------------------|----------------------------|-------------------------|-----|
-------|------------------------|----------------------------|-------------------------|-----|
-------|------------------------|----------------------------|-------------------------|-----|


                                                                                        W                 
  H        Q     E   E      H        E      Q     E      Q     E   Q     E   E   E      W                 
------------------------|---------------12g15----17--|--15--------------------------|--17----------------|
----------------15--17--|--18--------L---------------|--------18--17----18--17--13--|--------------------|
------------------------|----------------------------|------------------------------|--------------------|
------------------------|----------------------------|------------------------------|--------------------|
------------------------|----------------------------|------------------------------|--------------------|
------------------------|----------------------------|------------------------------|--------------------|


   W                 5x
---L-----------------||
---------------------||
--------------------*||
--------------------*||
---------------------||
---------------------||




Duration Legend
---------------
W - whole
H - half
Q - quarter
E - 8th
S - 16th
T - 32nd
X - 64th
. - note dotted
|-n-|  - n-tuplets


Tablature Legend
----------------
L - tied note
x - dead note
g - grace note
PH - pitch harmonic
pbr - preBendRelease
W - wide vibrato

Guitar 2

       E   E   E   E   E   E   E   E      E   E   E   E   E   E   E   E      E   E   E   E   E   E   E   E   
E||-----------------------------------|----------------------------------|----------------------------------|
B||-----------15----------15----------|----------15----------15----------|----------15----------15----------|
G||*------14----------14----------14--|------14----------14----------14--|------14----------14----------14--|
D||*--12----------12----------12------|--12----------12----------12------|--12----------12----------12------|
A||-----------------------------------|----------------------------------|----------------------------------|
E||-----------------------------------|----------------------------------|----------------------------------|


   E   E   E   E   E   E   E   E      E   E   E   E   E   E   E   E      E   E   E   E   E   E   E   E   
----------------------------------|----------------------------------|----------------------------------|
----------15----------15----------|----------15----------15----------|----------15----------15----------|
------14----------14----------14--|------14----------14----------14--|------14----------14----------14--|
--12----------12----------12------|--12----------12----------12------|--12----------12----------12------|
----------------------------------|----------------------------------|----------------------------------|
----------------------------------|----------------------------------|----------------------------------|


   E   E   E   E   E   E   E   E      E   E   E   E   E   E   E   E      E   E   E   E   E   E   E   E   
----------------------------------|----------------------------------|----------------------------------|
----------15----------15----------|----------15----------15----------|----------------------------------|
------14----------14----------14--|------14----------14----------14--|--14----------14----------14------|
--12----------12----------12------|--12----------12----------12------|------12--12------12--12------12--|
----------------------------------|----------------------------------|----------------------------------|
----------------------------------|----------------------------------|----------------------------------|


   E   E   E   E   E   E   E   E      E   E   E   E   E   E   E   E      E   E   E   E   E   E   E   E   
----------------------------------|----------------------------------|----------------------------------|
----------------------------------|----------------------------------|----------------------------------|
--14----------14----------14------|--14----------14----------14------|--12----------12----------12------|
------12--12------12--12------12--|------12--12------12--12------12--|------10--10------10--10------10--|
----------------------------------|----------------------------------|----------------------------------|
----------------------------------|----------------------------------|----------------------------------|


   E   E   E   E   E   E   E   E      E   E   E   E   E   E   E   E      E   E   E   E   E   E   E   E   
----------------------------------|----------------------------------|----------------------------------|
----------------------------------|----------------------------------|----------------------------------|
----------------------------------|--12----------12------------------|----------------------------------|
--15----------15----------15------|------10--10------10--10--14--10--|--12--12--12--12--12--12--12--12--|
------13--13------13--13------13--|----------------------------------|----------------------------------|
----------------------------------|----------------------------------|----------------------------------|


   E   E   E   E   E   E   E   E      E   E   E   E   E   E   E   E      E   E   E   E   E   E   E   E   
----------------------------------|----------------------------------|----------------------------------|
----------------------------------|----------------------------------|----------------------------------|
----------------------------------|----------------------------------|----------------------------------|
--10--10--10--10--10--10--10--10--|----------------------------------|--10--10--10--10--10--10--10--10--|
----------------------------------|--13--13--13--13--13--13--13--13--|----------------------------------|
----------------------------------|----------------------------------|----------------------------------|


   E   E   E   E   E   E   E   E      E   E   E   E   E   E   E   E      E   E   E   E   E   E   E   E   
----------------------------------|----------------------------------|----------------------------------|
----------------------------------|----------------------------------|----------------------------------|
--14----------14----------14------|--14----------14----------14------|--15----------15----------15------|
------12--12------12--12------12--|------12--12------12--12------12--|----------------------------------|
----------------------------------|----------------------------------|------13--13------13--13------13--|
----------------------------------|----------------------------------|----------------------------------|


   E   E   E   E   E   E   E   E      E   E   E   E   E   E   E   E      E   E   E   E   E   E   E   E   
----------------------------------|----------------------------------|----------------------------------|
----------------------------------|----------------------------------|----------------------------------|
--17----------17----------17------|--14----------14----------14------|--14----------14----------14------|
----------------------------------|------12--12------12--12------12--|------12--12------12--12------12--|
------15--15------15--15------15--|----------------------------------|----------------------------------|
----------------------------------|----------------------------------|----------------------------------|


   E   E   E   E   E   E   E   E      E   E   E   E   E   E   E   E      E   E   E   E   E   E   E   E   
----------------------------------|----------------------------------|----------------------------------|
----------------------------------|----------------------------------|----------------------------------|
--15----------15----------15------|--17----------17----------17------|--14----------14----------14------|
----------------------------------|----------------------------------|------12--12------12--12------12--|
------13--13------13--13------13--|------15--15------15--15------15--|----------------------------------|
----------------------------------|----------------------------------|----------------------------------|


   E   E   E   E   E   E   E   E   5x
-----------------------------------||
-----------------------------------||
--14----------14----------14------*||
------12--12------12--12------12--*||
-----------------------------------||
-----------------------------------||




Duration Legend
---------------
W - whole
H - half
Q - quarter
E - 8th
S - 16th
T - 32nd
X - 64th
. - note dotted
|-n-|  - n-tuplets

Guitar 3

       W                    W                    W                    W                    W                 
E||---10----------------|--12----------------|--13----------------|--15----------------|--10----------------|
B||---10----------------|--12----------------|--13----------------|--15----------------|--10----------------|
G||*--------------------|--------------------|--------------------|--------------------|--------------------|
D||*--------------------|--------------------|--------------------|--------------------|--------------------|
A||---------------------|--------------------|--------------------|--------------------|--------------------|
E||---------------------|--------------------|--------------------|--------------------|--------------------|


   W                    W                    W                    Q.      Q.      Q     
--12----------------|--13----------------|--15----------------|--12------12------12----|
--12----------------|--13----------------|--15----------------|--10------10------10----|
--------------------|--------------------|--------------------|------------------------|
--------------------|--------------------|--------------------|------------------------|
--------------------|--------------------|--------------------|------------------------|
--------------------|--------------------|--------------------|------------------------|


   Q.      Q.      Q        H.            Q        H.            Q        Q.      Q.      Q     
--12------12------12----|--12------------12----|----------------------|------------------------|
--10------10------10----|--10------------10----|--13------------13----|------------------------|
------------------------|----------------------|--12------------12----|--10------10------10----|
------------------------|----------------------|----------------------|--12------12------12----|
------------------------|----------------------|----------------------|------------------------|
------------------------|----------------------|----------------------|------------------------|


   Q.      Q.      Q        E   E   E   E   E   E   E   E     E   E   E  E   E   E  E   E   
------------------------|----------------------------------|-------------------------------|
--13------13------13----|----------13----------13------13--|---------13---------13-----13--|
--12------12------12----|------10----------10--------------|--9--10------9--10------9------|
------------------------|--12----------12----------12------|-------------------------------|
------------------------|----------------------------------|-------------------------------|
------------------------|----------------------------------|-------------------------------|


   E   E   E   E   E   E   E   E     E   E   E  E   E   E  E   E      Q.      Q.      Q     
----------------------------------|-------------------------------|--12------12------12----|
----------11----------11------11--|---------10---------13---------|--10------10------10----|
------10----------10--------------|--9--10------9--10------9--10--|------------------------|
--12----------12----------12------|-------------------------------|------------------------|
----------------------------------|-------------------------------|------------------------|
----------------------------------|-------------------------------|------------------------|


   Q.      Q.      Q        H        E   Q.         H        E   Q.         Q.      Q.      Q     
--12------12------12----|-----------------------|-----------------------|--12------12------12----|
--10------10------10----|--11--------L--11------|--13--------L--13------|--10------10------10----|
------------------------|---7--------L---7------|--12--------L---9------|------------------------|
------------------------|-----------------------|-----------------------|------------------------|
------------------------|-----------------------|-----------------------|------------------------|
------------------------|-----------------------|-----------------------|------------------------|


   Q.      Q.      Q        H        E   Q.         H        E   Q     E      W                 
--12------12------12----|-----------------------|-------------------------|--------------------|
--10------10------10----|--11--------L--11------|--13--------L--13----13--|--10----------------|
------------------------|---7--------L---7------|--12--------L---9-----9--|---7----------------|
------------------------|-----------------------|-------------------------|--------------------|
------------------------|-----------------------|-------------------------|--------------------|
------------------------|-----------------------|-------------------------|--------------------|


  W                 5x
--------------------||
--L-----------------||
--L----------------*||
-------------------*||
--------------------||
--------------------||



Duration Legend
---------------
W - whole
H - half
Q - quarter
E - 8th
S - 16th
T - 32nd
X - 64th
. - note dotted
|-n-|  - n-tuplets
        
Comments

@Wow_nonamesleft (March 17, 2010 at 10:03 PM)

My first megamanx game will always love this.