Gametabs
Home
Tabs
Random

Sigma Stage One

Average rating: 5.000

2 ratings

Composer:

Tabber:

Style:

Instrument:

Created: May 18, 2009 at 12:00 AM

                                Mega Man X - Sigma Stage 1 BASS TAB
                 Composers: Setuo Yamamoto, Makoto Tomozawa, 
              Yuki Iwai, Yuko Takehara and Toshihiko Horiyama.

                  Tabbed by auriplane ([email protected])
                               On May 18, 2009

Two versions, four- and six-string.  The only real difference is the
two high notes on the main riff are done with the right hand on four
string, and you can play them normally on six.

Here's the six-string version, standard tuning:

    Intro

C |----------------|----------------|----------------|----------------|
G |----------------|----------------|----------------|----------------|
D |----------------|----------------|----------------|----------------| x3
A |6-------6-----6-|----------------|----------------|----------------|
E |------------9---|----------------|----------------|----------------|
B |----------------|----------------|----------------|----------------|

C |----------------|----------------|----------------|----------------|
G |----------------|----------------|----------------|----6-8-6-5-----|
D |----------------|----------------|----------------|--8---------6---|
A |6-------6-----6-|----------------|----------------|--------------8-|
E |------------9---|----------------|----------------|----------------|
B |----------------|----------------|----------------|----------------|

    Part A

C |----------------|----------------|----------------|----8-------10--|
G |----------------|----------------|----------------|----------------|
D |----------------|----------------|----------------|6-------8-------| x3
A |6-------6-----6-|----------------|--------6-9-6---|----------------|
E |------------9---|----------------|----6-9-------9-|----------------|
B |----------------|----------------|----------------|----------------|

C |----------------|----------------|----------------|----------------|
G |----------------|----------------|----------------|----------------|
D |----------------|----------------|6---6-----------|----------------|
A |6-------6-----6-|----------------|----------------|----------------|
E |------------9---|----------------|--------------9-|----------------|
B |----------------|----------------|----------------|----------------|

C |----------------|----------------|----------------|----------------|
G |----------------|----------------|----------------|----------------|
D |----------------|----------------|----------------|----------------| x4
A |6-------6-----6-|----------------|----------------|----------------|
E |------------9---|----------------|----------------|----------------|
B |----------------|----------------|----------------|----------------|

C |----------------|----------------|----------------|----------------|
G |----------------|----------------|----------------|----6-8-6-5-----|
D |----------------|----------------|----------------|--8---------6---|
A |6-------6-----6-|----------------|----------------|--------------8-|
E |------------9---|----------------|----------------|----------------|
B |----------------|----------------|----------------|----------------|

C |----------------|----------------|----------------|----8-------10--|
G |----------------|----------------|----------------|----------------|
D |----------------|----------------|----------------|6-------8-------| x2
A |6-------6-----6-|----------------|--------6-9-6---|----------------|
E |------------9---|----------------|----6-9-------9-|----------------|
B |----------------|----------------|----------------|----------------|

C |----------------|----------------|----------------|----------------|
G |----------------|----------------|----------------|----------------|
D |----------------|----------------|----------------|6---------------|
A |6-------6-----6-|----------------|--------6-9-6---|----9---8-------|
E |------------9---|----------------|----6-9-------9-|------------9---|
B |----------------|----------------|----------------|----------------|

    Part C

C |----------------|----------------|----------------|----------------|
G |----------------|----------------|----------------|----------------|
D |6-------6---8-6-|----------------|------------6---|----------------|
A |----------------|----------------|9-------9-----9-|----------------|
E |----------------|----------------|----------------|----------------|
B |----------------|----------------|----------------|----------------|

C |----------------|----------------|----------------|----8-------10--|
G |----------------|----------------|----------------|----------------|
D |----------------|----------------|----------------|6-------8-------|
A |8-------9---8---|----------------|--------6-9-6---|----------------|
E |--------------9-|----------------|----6-9-------9-|----------------|
B |----------------|----------------|----------------|----------------|

C |----------------|----------------|----------------|----------------|
G |----------------|----------------|----------------|----------------|
D |6-------6---8-6-|----------------|------------6---|----------------|
A |----------------|----------------|9-------9-----9-|----------------|
E |----------------|----------------|----------------|----------------|
B |----------------|----------------|----------------|----------------|

C |----------------|----------------|----------------|----------------|
G |----------------|----------------|----------------|----6-8-6-5-----|
D |9---9---9---6---|------------6---|----------------|--8---------6---|
A |----------------|8-------8-------|----------------|--------------8-|
E |----------------|----7-----------|----------------|----------------|
B |----------------|----------------|----------------|----------------|

    Repeat back to Part B.



And the four-string version, standard tuning.

    Intro

G |----------------|----------------|----------------|----------------|
D |----------------|----------------|----------------|----------------| x3
A |6-------6-----6-|----------------|----------------|----------------|
E |------------9---|----------------|----------------|----------------|

G |----------------|----------------|----------------|----6-8-6-5-----|
D |----------------|----------------|----------------|--8---------6---|
A |6-------6-----6-|----------------|----------------|--------------8-|
E |------------9---|----------------|----------------|----------------|

    Part A
                                                          R.H.    R.H.
G |----------------|----------------|----------------|----------------|
D |----------------|----------------|----------------|6---18--8---20--| x3
A |6-------6-----6-|----------------|--------6-9-6---|----------------|
E |------------9---|----------------|----6-9-------9-|----------------|

G |----------------|----------------|----------------|----------------|
D |----------------|----------------|6---6-----------|----------------|
A |6-------6-----6-|----------------|----------------|----------------|
E |------------9---|----------------|--------------9-|----------------|

G |----------------|----------------|----------------|----------------|
D |----------------|----------------|----------------|----------------| x4
A |6-------6-----6-|----------------|----------------|----------------|
E |------------9---|----------------|----------------|----------------|

G |----------------|----------------|----------------|----6-8-6-5-----|
D |----------------|----------------|----------------|--8---------6---|
A |6-------6-----6-|----------------|----------------|--------------8-|
E |------------9---|----------------|----------------|----------------|

G |----------------|----------------|----------------|----------------|
D |----------------|----------------|----------------|6---18--8---20--| x2
A |6-------6-----6-|----------------|--------6-9-6---|----------------|
E |------------9---|----------------|----6-9-------9-|----------------|

G |----------------|----------------|----------------|----------------|
D |----------------|----------------|----------------|6---------------|
A |6-------6-----6-|----------------|--------6-9-6---|----9---8-------|
E |------------9---|----------------|----6-9-------9-|------------9---|

    Part B

G |----------------|----------------|----------------|----------------|
D |6-------6---8-6-|----------------|------------6---|----------------|
A |----------------|----------------|9-------9-----9-|----------------|
E |----------------|----------------|----------------|----------------|

G |----------------|----------------|----------------|----------------|
D |----------------|----------------|----------------|6---18--8---20--|
A |8-------9---8---|----------------|--------6-9-6---|----------------|
E |--------------9-|----------------|----6-9-------9-|----------------|

G |----------------|----------------|----------------|----------------|
D |6-------6---8-6-|----------------|------------6---|----------------|
A |----------------|----------------|9-------9-----9-|----------------|
E |----------------|----------------|----------------|----------------|

G |----------------|----------------|----------------|----6-8-6-5-----|
D |9---9---9---6---|------------6---|----------------|--8---------6---|
A |----------------|8-------8-------|----------------|--------------8-|
E |----------------|----7-----------|----------------|----------------|

    Repeat back to Part A.


        
Comments

No comments yet