Gametabs
Home
Tabs
Random

Password

Average rating: No ratings

Composer:

Tabber:

Style:

Instrument:

Created: April 04, 2013 at 12:00 AM

            PassWord by Mega Man X

Tab by Kenkiske 04/01/2013

Rhythm Synth (x2):

|---------------------------------------------------|
|--14-14--14-14-14--141414--12-12--12-12-12--121212-|
|---------------------------------------------------|
|---------------------------------------------------|
|---------------------------------------------------|
|---------------------------------------------------|
 
|---------------------------------------------------|
|--11-11--11-11-11--111111--9-9--9-9-9--999---------|
|---------------------------------------------------|
|---------------------------------------------------|
|---------------------------------------------------|
|---------------------------------------------------|

Lead Synth(x2):
|--------9---11-9-14--13-14----11-9-----------------|
|--7~9-7-------------------14-----------------------|
|---------------------------------------------------| x2
|---------------------------------------------------|
|---------------------------------------------------|
|---------------------------------------------------|

Rhythm Synth(x2):
|---------------------------------------------------|
|---------------------------------------------------|
|--11-11--11-11-11--111111--10-10--10-10-10--101010-|
|---------------------------------------------------|
|---------------------------------------------------|
|---------------------------------------------------|

|---------------------------------------------------|
|-------------------9-9--9-9-9--999-----------------|
|--8-8--8-8-8--888----------------------------------|
|---------------------------------------------------|
|---------------------------------------------------|
|---------------------------------------------------|

Lead Synth solo:
|--------------------------------------------------7-9---|
|--7---9-7-6--7-6-4--6-7--6-7--9-7-6--9-11-9-7--11-----9-|
|-----------------------6--------------------------------|
|--------------------------------------------------------|
|--------------------------------------------------------|
|--------------------------------------------------------|

Repeat all to fade...
        
Comments

No comments yet