Gametabs
Home
Tabs
Random

Opening Stage

Average rating: 5.000

1 ratings

Composer:

Tabber:

Style:

Instrument:

Created: May 27, 2022 at 12:00 AM

            Opening Stage    
Mega Man X                               
Composed by Setsuo Yamamoto
Arranged by William Geesdorf


Standard tuning
(Capo 1)


     E.  E.  S S  E  Q    E       E  E  E   E  E  Q    E   
E||--------------------------||---------------------------|
B||------------------2----2--||---------3p--2-------------|
G||------4---2-------2----2--||*---------------2--3----4--|
D||------------2h-3----------||*-----4--------------------|
A||--2---------------0----0--||---2-----------------------|
E||--------------------------||---------------------------|


  E  E  E  Q    E  E  E     E  E  E  E  E  Q    E     E  E  E  E  E  E  E  E   
-------------------------|-------------------------|-----------2--0-----------|
----------------3--------|--------3----------------|--------3--------3--2-----|
--------2--4-------4-----|--------------2--3----4--|-----4-----------------2--|
-----4----------------4--|-----4-----4-------------|--------------------------|
--2----------------------|--2----------------------|--2-----------------------|
-------------------------|-------------------------|--------------------------|


  E  E  E  E  E  Q    E     E  E  E  Q.     E  E     E.  E.  Q    Q    E   
-----3-----2--0----------|------------------------|--0--------------------|
-----------------3----2--|--3--------0------2--3--|------2---3----2-------|
--------0----------------|--------0---------------|--------------------2--|
-------------------------|-----0------------------|-----------------------|
-------------------------|------------------------|--4--------------------|
--3----------------------|--3---------------------|-----------------------|


  Q    E  Q    E  Q       E  E  E   E  E  Q    E     E  E  E  Q    E  E  E   
----------2-------2----|--------------------------|-------------------------|
----------2-------2----|--------3p--2-------------|----------------3--------|
-------2-------2-------|---------------2--3----4--|--------2--4-------4-----|
--4--------------------|-----4--------------------|-----4----------------4--|
--0--------------------|--2-----------------------|--2----------------------|
-----------------------|--------------------------|-------------------------|


  E  E  E  E  E  Q    E     E  E  E  E  E  E  E  E     E  E  E  E  E  Q    E   
-------------------------|--------------0--1--0-----|-----3-----2--0--7----5--|
--------3-------------0--|-----0--3--0-----------3--|-------------------------|
--------------2--3-------|--------------------------|--------0----------------|
-----4-----4-------------|--------------------------|-------------------------|
--2----------------------|--2-----------------------|-------------------------|
-------------------------|--------------------------|--3----------------------|


  E  E  E  Q.     E  E     E.  E.  Q    Q    E     Q    E  Q    E  Q     
--3--------0------------|--0------------0----2--|--2-------2-------2----|
--------0---------2--3--|------2---3------------|----------2-------2----|
-----0------------------|-----------------------|-------2-------2-------|
------------------------|-----------------------|-----------------------|
------------------------|--4--------------------|--0--------------------|
--3---------------------|-----------------------|-----------------------|


  Q    Q    E  Q    E     E  E  E  Q.     E  E     E  H        S  S E  E   
-----------------------|------------------------|-------------------------|
---------------0----3--|--2---------------2--3--|--2--0-------------2--3--|
------------0----------|-----2------------------|--0-----------2h-4-------|
-------2---------------|--------4---------------|-------------------------|
-----------------------|-----------4------------|-------------------------|
--3--------------------|--2---------------------|--0----------------------|


  E  E  H.              E  E  E  E  E  E  E  E     Q    E  E  E  E  E  E   
--0------------------|-----------------0--------|-------------------------|
-----3--2------------|--------0--2--3-----3--2--|----------------------2--|
---------------------|-----0--------------------|-------2--------2--------|
---------------------|--------------------------|----------2--4-----4-----|
---------------------|--------------------------|-------------------------|
--2------------------|--3-----------------------|--2----------------------|


  Q    E  Q    E  E  E     H.           Q       E  E  Q    E  E  E  E   
--0------------0-----0--|--2-----------------|-------------------------|
----------3-------3-----|--3------------2----|----------------2--3-----|
-------0----------------|--------------------|--------4-------------4--|
------------------------|--------------------|-----4-------4-----------|
------------------------|--------------------|--2----------------------|
--0---------------------|--2-----------------|-------------------------|


  E  E  E  E  E  E  E  E     E  E  E  E  E  E  E  E   
-----------2--0-----------|--------------------------|
--------2--------2--3--0--|--------------3--2--0-----|
--------------------------|-----0-----0--------------|
-----4--------------------|--------2--------------4--|
--------------------------|--0-----------------------|
--0-----------------------|--------------------------|


  E  E  E  E  E  E  E  E     E  E  Q    E  E  E  E     E  Q    E  E  E  Q     
--------------------------|----------------------2--|-----0-------------0----|
--3--2--0-----5--2--------|----------------2--3-----|-------------3--2-------|
-----------0--------2-----|--------4----------------|----------0-------------|
--0--------------------4--|-----4-------4-----------|------------------------|
--------------------------|--2----------------------|------------------------|
--------------2-----------|-------------------------|--0---------------------|

                          1st Ending                 2nd Ending
  Q    E  Q    Q.         E   E  E  H        E       W                 
---------------0------|--(2)-----------------L---||--2----------------|
----------2-----------|---5---3--2---------------||--3----------------|
-------2--------------|-------------4--------L--*||-------------------|
--4-------------------|-------------------------*||-------------------|
----------------------|---2------------------L---||--2----------------|
--0-------------------|--------------------------||-------------------|


  ^                                       
  H        H           W                  
--2-----------------|-------------------||
--3-----------------|-------------------||
--4-----------------|-------------------||
--4-----------------|-------------------||
--2-----------------|-------------------||
--------------------|-------------------||




Duration Legend
---------------
W - whole
H - half
Q - quarter
E - 8th
S - 16th
T - 32nd
X - 64th
. - note dotted
|-n-|  - n-tuplets


Tablature Legend
----------------
L - tied note
(n) - ghost note (optional)
h - hammer on
p - pull off
^ - brush up
        
Comments

No comments yet