Gametabs
Home
Tabs
Random

Light Capsules

Average rating: No ratings

Composer:

Tabber:

Style:

Instrument:

Created: October 03, 2007 at 12:00 AM

            Game: Mega Man X
Song: Dr. Light's Capsule
Composed by: Some guy
Tabbed by: Not So Great Juja (Paul Horses)

Key:
~ = vibrato
p = pull-off
h = hammer-on
/ = slide
pm = palm-mute
tr = tremolo picking

Any questions or comments -
please, E-mail me at: [email protected]


e|----------------------------------------------|
B|-12-13-12-15-12-13-15---12-13-12-15-12-13-15--|
G|----------------------------------------------|
D|----------------------------------------------|
A|----------------------------------------------|
E|----------------------------------------------|
 |                                              |
e|12-12--12--------------10-10--10--------------|
B|13-13--13--------------12-12--12--------------|
G|14-14--14--------------12-12--12--------------|
D|----------------------------------------------|
A|----------------------------------------------|
E|----------------------------------------------|
 |                                              |
G|----------------------------------------------|
D|7----------------------5----------------------|
A|----------------------------------------------|
E|----------------------------------------------|


=================================================


e|----------------------------------------------|
B|-12-13-12-15-12-13-15---12-13-12-15-12-13-15--|
G|----------------------------------------------|
D|----------------------------------------------|
A|----------------------------------------------|
E|----------------------------------------------|
 |                                              |
e|12-12--12--------------10-10--10--------------|
B|13-13--13--------------8--8---8---------------|
G|14-14--14--------------10-10--10--------------|
D|----------------------------------------------|
A|----------------------------------------------|
E|----------------------------------------------|
 |                                              |
G|----------------------------------------------|
D|3----------------------5----------------------|
A|----------------------------------------------|
E|----------------------------------------------|


=================================================


e|----------------------------------------------|
B|-12-13-12-15-12-13-15---12-13-12-15-12-13-15--|
G|----------------------------------------------|
D|----------------------------------------------|
A|----------------------------------------------|
E|----------------------------------------------|
 |                                              |
e|12-12--12--------------10-10--10--------------|
B|13-13--13--------------12-12--12--------------|
G|14-14--14--------------12-12--12--------------|
D|----------------------------------------------|
A|----------------------------------------------|
E|----------------------------------------------|
 |                                              |
G|----------------------------------------------|
D|7----------------------5----------------------|
A|----------------------------------------------|
E|----------------------------------------------|


=================================================


e|----------------------------------------------|
B|-12-13-12-15-12-13-15---12-13-12-15-12-13-15--|
G|----------------------------------------------|
D|----------------------------------------------|
A|----------------------------------------------|
E|----------------------------------------------|
 |                                              |
e|12-12--12--------------11------12-------------|
B|13-13--13--------------10------12-------------|
G|14-14--14--------------10------12-------------|
D|----------------------------------------------|
A|----------------------------------------------|
E|----------------------------------------------|
 |                                              |
G|----------------------------------------------|
D|3----------------------0-------2--------------|
A|----------------------------------------------|
E|----------------------------------------------|

        
Comments

No comments yet