Gametabs
Home
Tabs
Random

Time Man

Average rating: No ratings

Composer:

Tabber:

Style:

Instrument:

Created: November 22, 2020 at 12:00 AM

                                          Q.      S  S  E.  E.   E   
E||-------|-------|-------|-----------------------------|
B||-------|-------|-------|--10------10-10-10---8-------|
G||-------|-------|-------|-------------------------10--|
D||-------|-------|-------|-----------------------------|
A||-------|-------|-------|-----------------------------|
E||-------|-------|-------|-----------------------------|


   E.   E.   Q    E   E   E      E   E   E   Q     Q     E   
-----------------------------|------------------------------|
------------10---------------|------------------------------|
------------------9----------|--12--10--12--13----12----13--|
--10---12------------12--10--|------------------------------|
-----------------------------|------------------------------|
-----------------------------|------------------------------|


   Q.      Q.      Q        Q.      S  S  E.   E.   E   
------------------------|--17------17-17-17---15-------|
------------------------|--------------------------18--|
--14------15------17----|------------------------------|
------------------------|------------------------------|
------------------------|------------------------------|
------------------------|------------------------------|


   E.   E.   Q     E   E   E      E   E   E   H        E         
------------17----------------|--15--16--15---------------|-----|
--13---15---------17--15--13--|--------------16-----------|-----|
------------------------------|---------------------------|-----|
------------------------------|---------------------------|-----|
------------------------------|---------------------------|-----|
------------------------------|---------------------------|-----|


  E.   E.   E  Q.      S  S     W                   E.  E.   E  Q.     S S  
----------------------------|--------------------|-------------------------|
----------------------------|--------------------|-------------------------|
---------------8------------|--------------------|--------------8----------|
----------------------11-10-|--11----------------|---------------------8-6-|
--8---10---11---------------|--------------------|--6---8---10-------------|
----------------------------|--------------------|-------------------------|


  W                   E.  E.   E   E.  E.  E     E.   E.  E  E.   Q    S  
-------------------|--------------------------|--------------------------|
-------------------|--------------------------|--------------------------|
-------------------|--------------------------|-----------8--8---10------|
--5----------------|-------------------8---9--|--9---11------------------|
-------------------|--8---9---11--11----------|--------------------------|
-------------------|--------------------------|--------------------------|


  E.   E.   E   E.  E.   E      Q     Q     Q    Q     
----------------------------|--------------------9----|
--------------------9---11--|--12----11----12---------|
--8---10---11--11-----------|-------------------------|
----------------------------|-------------------------|
----------------------------|-------------------------|
----------------------------|-------------------------|


   Q     Q     Q    Q                E  E  E  E   E  E  E  E   
--------------------9----|-------|----------------------------|
--12----11----12---------|-------|--10-----------10-----------|
-------------------------|-------|---------7------------7-----|
-------------------------|-------|------8-----8------8-----7--|
-------------------------|-------|----------------------------|
-------------------------|-------|----------------------------|


  E  E  E  E  E  E  E  E     E  E  E  E  E  E  E  E   
--------------------------|--3-----------3-----------|
--8-----------8-----------|--------1-----------1-----|
--------5-----------5-----|-----1-----1-----1-----1--|
-----7-----7-----7-----6--|--------------------------|
--------------------------|--------------------------|
--------------------------|--------------------------|


                                |---3--|   |--3--|   |---3--|   |--3--|   
  E  E  E  E  E  E   E   E      E   E  E   E  E  E   E   E  E   E  E  E   
--1---------------------10--|--17------6--10--6--6--17------6--10--5--5--|
--------------6--8--11------|------11-------------------11---------------|
--------3--7----------------|--------------------------------------------|
-----5----------------------|--------------------------------------------|
----------------------------|--------------------------------------------|
----------------------------|--------------------------------------------|


   |--3--|  |--3--|   |--3--|  |--3--|                                  
   E  E  E  E  E  E   E  E  E  E  E  E      E  E   E  E   E  E   E  E   
--15--5--5--8--5--5--15--5--5--8--4--4--|--15--4--15--4--15--4--15--4--|
----------------------------------------|--16-----16-----16-----16-----|
----------------------------------------|------------------------------|
----------------------------------------|------------------------------|
----------------------------------------|------------------------------|
----------------------------------------|------------------------------|


   E  E   E   S  S  S  S  S  S  S  S  S  S             
--15--4--15--------------------------------|----|----||
--16-----16--13-13-16-18-16-14-13----------|----|----||
-------------------17-18-17-15-13-15-13-12-|----|----||
----------------------------------17-15-13-|----|----||
-------------------------------------------|----|----||
-------------------------------------------|----|----||
        
Comments

No comments yet