Gametabs
Home
Tabs
Random

Staff Roll

Average rating: 5.000

1 ratings

Composer:

Tabber:

Style:

Instrument:

Created: November 07, 2015 at 12:00 AM

            Staff Roll/Credits Main Melody
Mega Man Legends for PS1
Capcom
By: dan556
Oct. 12, 2015

Starts at 1:24
e---------------------------------------
B---------------------------------------
G---------------10---9--9--------------- x2
D-----10---12---------------------------
A--10-----------------------------------
E---------------------------------------

e---------------------------------------
B---------------------------------------
G---------------------9--9--------------
D---12---10---12------------------------
A---------------------------------------
E---------------------------------------

e------------------------------------------
B------------10----------------------------
G-----------------12---9--12---------------
D----12h10--------------------12---10---10-
A------------------------------------------
E------------------------------------------

e------------------------------------------
B------------------------------------------
G------------------------------------------
D--------10------------10---10-------------
A-----------10----12-----------------------
E------------------------------------------

e------------------------------------------
B------------------------------------------
G----------9--10--9-10--12------12---------
D--10--12-------------------12------10--12- Goes back to start after slide and repeats melody
A------------------------------------------
E------------------------------------------

e------------------------------------------
B---------------------------10----10-12-13-
G----------9--10--9-10--12-----12----------
D--10--12---------------------------------- Second ending
A------------------------------------------
E------------------------------------------
        
Comments

No comments yet