Gametabs
Home
Tabs
Random

Tengu Man

Average rating: No ratings

Composer:

Tabber:

Style:

Instrument:

Created: May 26, 2021 at 12:00 AM

            Title: Tengu Man ~ Aerial Realm
Album: Mega Man & Bass
Music: Akari Kaida, Naoshi Mizuta
Tabber: H.F.

Tempo = 120

Legend
L - tied note
h - hammer on/pull off
s - slide

                                                         
E |----------------------------------------------------||
B |--------------------------1-------------------------||
G |--------------------------2--------3L-3-------------||
D |--------------------------1--------5L-5-------------||
A |-----------------------------------0L-0-------------||
E |----------------------------------------------------||

                            
-2-----------------0-------|
-3--------------3-----7----|
o2-------------------------|
o--------------------------|
---------------------------|
-3-----------3-------------|

                                                     
--------------------------------------0-------------|
--7-----------5-----------2--------------------3L---|
--4-----------------------3-------------------------|
--6-----------------------5-------------------------|
--4-------------------------------------------------|
--------------------------2-------------------------|

                                                                           
----------------------------|--7--5-----0----|--------------------0--2----|
--3--------------0----------|--5-----7-------|--3--------------3----------|
--2--------------2--6--7----|--5-----5-------|--4--------------4----------|
--4-------------------------|----------------|--4--------------4----------|
--2-----------2-------------|--0-------------|----------------------------|
----------------------------|--------4-------|--3-----------3-------------|

                             
--0-------------------------|
--2-------------------------|
--2--------2-----------2----|
--0-----------0-------------|
----------------------------|
----------------------------|

                                                     
----------------------------------------------------|
--0-----------2-----------3-----------0-------------|
--0-----------------------------0-------------------|
--------------------------------------------4s-3----|
--3-----------------------3-------------------------|
----------------------------------------------------|

                                                          
-----------------------0----|--2-----------------0-------|
--2--------------2h-3-------|--3--------------3-----7----|
--0-----------0-------------|--2-------------------------|
--2-----------3-------------|----------------------------|
--0-----------0-------------|----------------------------|
----------------------------|--3-----------3-------------|

                                                     
--------------------------5-----------3--------2L---|
--7-----------5-----------3--------------------3L---|
--4-----------------------3--------------------2L---|
--6-----------------------4-------------------------|
--4-------------------------------------------------|
----------------------------------------------------|

                             
--2-----------------0-------|
--3--------------3-----7----|
--2-------------------------|
----------------------------|
--2-----------2-------------|
----------------------------|

                                                     
--7--------------------10-------------0-----2-------|
--8-----------10------------------------------------|
--9--------------------11---------------------------|
-----------------------10-------12------------------|
--0-------------------------------------------------|
--------------------------10------------------------|

                                                                           
--2-----------------0--2----|--0-------------------------|-----------2----|
--3--------------3----------|--2-----------------3-------|--0--2--3--3----|
--4--------------4----------|--2--------2L-2-------------|--0--2--4-------|
----------------------------|----------------------------|----------------|
----------------------------|----------------------------|----------------|
--3-----------3-------------|--2-----------2-------------|--0-----0-------|

             ^                                                       
--0-------|--2-------------------------|----------------------------|
--0--2----|--2--------2-----------2----|--2--------3L-3-----2--3----|
-----2----|--2--------2-----2--4-------|--2--------4L-4--4----------|
----------|--2--------2----------------|----------------------------|
--0--0----|--4-----------------4-------|--2--------2L-2-----2-------|
----------|--2--------2----------------|----------------------------|

  ^
--2-------------------------|-----------------------0----|
--2--------2L-2--------2----|--5-----2--3L-3-----3-------|
--2--------2L-2--2--4-------|--2--------4L-4-------------|
--2--------2----------------|----------------------------|
--4-----------------4-------|--2--------2L-2-----2-------|
--2--------2L-2-------------|----------------------------|


--2-----0--------------0----|--2-----0--------2-----0L---|
--3--------3L-3-----3-------|--3--------3L-3-----3--2L---|
-----------4L-4-------------|-----------1L-1-------------|
----------------------------|----------------------------|
----------------------------|--1-----------1-------------|
--0-----------0-------------|----------------------------|


--0--------------------------------0--------5h-7----|
--2-----------------------0h-2h-3-----7h-8----------|
--------------------1h-2----------------------------|
----------------------------------------------------|
--0-----------------------0-------------------------|
----------------------------------------------------|


--5s-----------------------|||
--5s-------------0--2--3---|||
--------------------------o|||
--------------------------o|||
--0------------------------|||
---------------------------|||


        
Comments

No comments yet