Gametabs
Home
Tabs
Random

Wily Machine

Average rating: No ratings

Composer:

Tabber:

Style:

Instrument:

Created: June 08, 2014 at 12:00 AM

            e|-12-11-12-14--11-12-12--14\12\11----------16-14--------------|
B|------------14-------------------14-16-17-------14-13-16-----|
G|----------------------------------------------------------13-|
D|-------------------------------------------------------------|
A|-------------------------------------------------------------|
E|-------------------------------------------------------------|

e|-12-11-12-14--11-12-12--14\12\11-----------------9-9--11-9-8-|
B|------------14-------------------7-9-10-9-7-9-10-------------|
G|-------------------------------------------------------------|
D|-------------------------------------------------------------|
A|-------------------------------------------------------------|
E|-------------------------------------------------------------|

e|-12-11-12-14-11--12-11-12-14-11-----------------9-8-|
B|--------------------------------7-9-10-9-7-9-10-----|
G|----------------------------------------------------|
D|----------------------------------------------------|
A|----------------------------------------------------|
E|----------------------------------------------------|
        
Comments

No comments yet