Gametabs
Home
Tabs
Random

Splash Blue

Average rating: 5.000

1 ratings

Composer:

Tabber:

Style:

Instrument:

Created: June 03, 2011 at 12:00 AM

                                         Splash Blue [from Megaman 9]

Music by Ippo Yamada - Yu Shimoda - Ryo Kawakami - Hiroki Isogai >> tab by Diralark

Guitar, tempo 114

      E   E  E  E  E  E  E  E     E  E  E  E  E  E  E  E     E  E  E   E  E  E   E  E   
E||----------------------------|--------------------------|-------------------------0--|
B||-------------------------1--|--L--------------1-----3--|--L----------------------1--|
G||*--2------------0--2--------|--------------2-----------|----------------------------|
D||*---------2-----------2-----|--------0-----------0-----|----------------------------|
A||---0h--3-----3--0--3--------|-----2-----2-----2--------|-----0--3p--0-----0h--3--0--|
E||----------------------------|--3-----------3-----------|--1------------1------------|


1._______________            2._______________
  E  E  E  E  E  E  E  E       E  E  E  E  E  E  E  S  S      E  E  E  E  E   E  E   E   
---------------------------||----------------------------||---0------------------0h--3--|
--1--3-----1-----0---------||-----3-----1--1--------1h-3-||------------1----------------|
-----4-----2-----0-----0--*||-----4-----2--------0-------||*----------------------------|
--------------------------*||-----------------2----------||*--------2------------2------|
---------------------------||----------------------------||---0--3--------0h--3---------|
--0--L--0--L--3--L--3--L---||--0--L--0--L--3--L--3-------||-----------------------------|


  E  E  E  E  E  E  E  E     S  S E  E   E  E  E  E  E     E  E  E  E   E   E  E  E   
--5--------3--------------|--0h---0------------0--------|----------------------------|
--------------------3-----|-----3-----------------3--1--|--0-------------------------|
--------------------------|-----------------------------|---------------L------------|
--------0-----------0-----|-----------------------------|----------------------------|
-----2-----2-----2-----2--|-------0--3p--0--------------|--------2-------------2-----|
--3-----------3-----------|--1--------------1--------L--|--0--4-----4p--0h--4-----4--|


  E  E  E  E  E  E  E  E     E  E  E  E  E  E  E   E     E  E  E  E  E  E  E  E   
--------0--0--L-----0-----|-----------0--------3------|--5-----------------3-----|
-----1-----1-----1-----1--|-----0--3--0-----0--3p--0--|--------1-----------1-----|
--2-----------2-----------|--0-----------0------------|-----2-----2-----2-----2--|
--------2--L--------2--L--|--------0--L--------0---L--|--------------------------|
--0--L--------0--L--------|---------------------------|--------3--L--------3--L--|
--------------------------|--3--L--------3--L---------|--1--L--------1--L--------|


                                               VII                                            
 1._______________              2._______________                      >  >    >  >  >    >   
  E  E  E  E  E  E   E  S  S      E  E  E  E   S   S S S  S S S S      E  Q    E  E  Q    E   
--4------------------L--------||--4-----------------------L-------||-------------------------|
--------0------------0--1h-3--||----------------------------9---0-||----------------------1--|
-----1-----1-----1------1----*||-----------------------7------9---||*--2--2-------0--2-------|
--2-----------2--------------*||----------------------------------||*----------2-------------|
------------------------------||--------2----------7------7-------||---0--0----0--0----------|
--0-----------0---------------||--0--4-----4p--0-----7------------||-------------------------|


                           I                         1._______________                       
  >  >    >  >  >    >     >  >    >  >   >    >        >    >    >         
  E  Q    E  E  Q    E     E  Q    E  E   Q    E     E  Q    Q    Q.        
------------------------|--1-------------------0--|--L--------------------||
--L-------------1----3--|--L----------1h--3-------|-----3----1----0-------||
--0--0-------2----------|-------------------------|----------------------*||
----------0-------------|--3--3-------3--------2--|--L--2---------2------*||
------------------------|----------3--------------|----------2------------||
--3--3----3--3----------|--1--1----1--1--------0--|--L--0----0----0-------||

2._______________
  E  E  E  E  E  E  E  S S    E  E  E  E  E   E  E  E     E  S S S S S S E  S S S S S S  
--L--------0--L--3-----5---|--5------------------------|--------------------------------|
--------3------------------|---------------------------|-----0---0---0---3--0---0---0---|
---------------------------|---------------------------|-------0---0---0------0---0---0-|
--L--2---------------------|--------2------------2-----|--------------------------------|
-------------------------2-|--0--3-----3--0h--3-----3--|-----2-------2------2-------2---|
--L--0--------3-----0--3---|---------------------------|--3--------------3--------------|

                                                       Da Capo
  E  S S S S S S E  S S S S S S    E  S S S S S S E  S S S S S S   
--------------------------------|--------------------------------||
--3--------------1--------------|--1--------------0--------------||
-----2---2---2------2---2---2---|-----1---1---1------1---1---1---||
-------3---3---3------3---3---3-|-------2---2---2------2---2---2-||
--------------------------------|--------------------------------||
--1--------------1--------------|--0--------------0--------------||

Legend
---------------
H - half
Q - quarter
E - 8th
S - 16th
. - note dotted
L - tied note
> - accentuded note
h - hammer on
p - pull off
        
Comments

No comments yet