Gametabs
Home
Tabs
Random

Plug Man

Average rating: No ratings

Composer:

Tabber:

Style:

Instrument:

Created: August 05, 2016 at 12:00 AM

            Plug Man
Mega Man 9
Ippo Yamada, Ryo Kawakami, Yu Shimoda, Hiroki Isogai
ltm_1988
8/1/2016

MIDI is slowed from game speed.

    S S S S S S S S 
E||-----------------|
B||-----------------|
G||-2-2-2-2---------|
D||-----------------|
A||---------0-0-0-0-|
E||-----------------|

    S S S S E   E.    S E   S E   S   S S S S E   E.    S E   S E   S
E||---------------------0-----------|---------------------------------|
B||-------0-----1~----------3-1-----|-0-----0-------------------------|
G||*2-------------------------------|---------------------------------|
D||*--------0-----------------------|-------------5~------------------|
A||-0-0---0-----0-----0-----3-0---0-|---------2-----------5---2-------|
E||-----3---------------0-----------|-3-3-1-3-----3-----3-------3---3-|

    S S S S E   E.    S E   S E   S   S S S S E   E.    S E   S E   S
E||---------------------0-----------|-------------3-------1---0-------|
B||-------0-----1~----------3-1-----|-0-----0-------------------3-----|
G||-2-------------------------------|---------------------------------|
D||---------0-----------------------|---------------------0-----------|
A||-0-0---0-----0-----0-----3-0---0-|---------2---------------2-------|
E||-----3---------------0-----------|-3-3-1-3-----3-----3-------3---3-|

    S S S S E   E.    S E   S E   S   S S S S E   E.    S E   S E   S
E||---------------------------------|---------------------------------|
B||-1-----1-----------------0-1-----|-0-----0-------------------0-----|
G||-------------2~------2-----------|---------------------0---2-------|
D||---------------------------------|-------------5~------0-----------|
A||---------3-----------3-----------|---------2---------------3-------|
E||-1-1-0-1-----1-----1-----3-1---1-|-3-3-1-3-----3-----3-------3---3-|

    S S S S E   E.    S E   S E   S   S S S S S S S S E   S E   S S S
E||---------------------------------|---------------------------------|
B||---------------------------------|-----1---0---1---0---------------|
G||-2~------------------------------|---------------------0-2-------0-|
D||-0-0---0-0---0-----0-------------|-0-0---0-0-0---0-----------2-2---|
A||-----3---------------0-----3---3-|-0-0-3-----------------------3-3-|
E||-------------------------2-------|---------------------------0-----|

    S S S S E   E.    S E   S E   S   S S S S E   E.    S E   S E   S
E||---------------------0-----------|---------------------------------|
B||-------0-----1~----------3-1-----|-0-----0-------------------------|
G||-2-------------------------------|---------------------------------|
D||---------0-----------------------|-------------5~------------------|
A||-0-0---0-----0-----0-----3-0---0-|---------2-----------5---2-------|
E||-----3---------------0-----------|-3-3-1-3-----3-----3-------3---3-|

    S S S S E   E.    S E   S E   S   S S S S E   E.    S E   S E   S
E||---------------------0-----------|-------------3-------1---0-------|
B||-------0-----1~----------3-1-----|-0-----0-------------------3-----|
G||-2-------------------------------|---------------------------------|
D||---------0-----------------------|---------------------0-----------|
A||-0-0---0-----0-----0-----3-0---0-|---------2---------------2-------|
E||-----3---------------0-----------|-3-3-1-3-----3-----3-------3---3-|

    S S S S E   E.    S E   S E   S   S S S S E   E.    S E   S E   S
E||---------------------------------|---------------------------------|
B||-1-----1-----------------0-1-----|-0-----0-------------------0-----|
G||-------------2~------2-----------|---------------------0---2-------|
D||---------------------------------|-------------5~------0-----------|
A||---------3-----------3-----------|---------2---------------3-------|
E||-1-1-0-1-----1-----1-----3-1---1-|-3-3-1-3-----3-----3-------3---3-|

    S S S S E   E.    S E   S E   S   S S S S E   E   E   S S E.    S
E||---------------------------------|---------------------------------|
B||---------------------------------|-----1---0---1---0---------------|
G||-2~------------------------------|---------------------0-2-0\--\12-|
D||---------0-----------------------|---------0-----------------------|
A||-0-0---0-----0-----0-3---0-------|-0-0---0-----0-------------------|
E||-----3---------------------3---3-|-----3---------------------------|

    E.    S E   E   S S S S S S E     E.    S E   E   S S S S S S E  
E||-5-------5~------5-----3-----1---|-----------------0---------------|
B||---------------------------------|-5~--------------------1---------|
G||---------------------------------|-----------------------------2---|
D||---------------------3---0-------|---------------------------------|
A||-------8-------------------1-----|-3-------3---3---3-3-------3-----|
E||-6-------6---6---6-6-------------|-------3-------------3---0-------|

    E   E   E   E   S S S E.    E     E   E   E   E   E   S E.    E  
E||-----------------------------3~--|-----1---0---1---0---------------|
B||-3~--1---3~------1-1---3---------|---------------------1-3---------|
G||---------------------------------|---------------------------------|
D||-0---0-------0-------0-------0---|-0---0-------0-------0-------0---|
A||---------3-----------------------|---------3-----------------------|
E||---------------------------------|---------------------------------|

    E.    S E   E   S S S S S S E     E.    S E   E   S S S S S S E  
E||-5-------5~------5-----3-----1---|-----------------0-----------8---|
B||---------------------------------|-5~------------------------------|
G||---------------------------------|-----------------------5---------|
D||---------------------3---0-------|---------------------------------|
A||-------8-------------------1-----|-3-------3---3---3-3-------------|
E||-6-------6---6---6-6-------------|-------3-------------3---0-8-----|

    E   E   E   E   S S S E.    E     E   E   E   E   E   S S S S S S
E||-5~--------------------------3~--|-----1---0---1---0-------0-1-3-5-|
B||-----1---3-------1-1---3---------|---------------------1-3---------|
G||---------------------------------|---------------------------------|
D||-0---0-------0-------0-------0---|-0---0-------0-------0-------0---|
A||---------3-----------------------|---------3-----------------------|
E||---------------------------------|---------------------------------|

    E.    S E   E   S S S S S S E     E.    S E   E   S S E   S S S S
E||-6~--------------6-----5---------|-5-----------------------------5-|
B||-----------------------------8---|-------6-------------------6-8---|
G||-------------------------0-------|-------------7~----------7-------|
D||---------------------------------|-0-----0-----0---0-0-------0-----|
A||-6-----6-----6---6-6-------6-----|---------0-----------0---8-------|
E||---------6-----------6-----------|---------------------------------|

    E.    S E   E   S S S S S S E     E.    S E   E   S S E   S S S S
E||-6~--------------6-----8-----6---|-5-----------------------------0-|
B||---------------------------------|-------6-------------------------|
G||-------------------------0-------|-------------7~--------------7---|
D||---------------------------------|-0-----0-----0---0-0-------0-----|
A||-6-----6-----6---6-6-------6-----|---------0-----------0---8-------|
E||---------6-----------6-----------|---------------------------------|

    E   E   E   E   E   S E   S S S   E   E   E   E   E   S E   S S S
E||-----------------------0---------|---------------------------------|
B||-6~--------------6-----------6---|-8~--------------8-----6-----8---|
G||---------------------------------|---------------------------0-----|
D||---------------------------0-----|---------------------------------|
A||---------------------------------|---------------------------------|
E||-6---6---8---6-------6---------6-|-8---8---8---8-------8-------0-8-|

    E   E   E   E   E   S E   S S S   E   E   E   E   E   S E   S E  
E||---------------------------------|-----------------------------11--|
B||-9~--------------9-----8-----9---|-11~-------------8-----11--------|
G||---------------------------------|-----------------------------0---|
D||---------------------------------|---------------------------8-----|
A||---------------------------8-----|---------------------------------|
E||-9---9---8---9-------9---------9-|-11--11--8---11------11--------11|

    E   E   E   Q       Q       S S   E   E   E   E   S S S S S S S S x3 W
E||-13~-----------------------------|---------------------------------||-1-
B||---------------------------------|---------------------------------||-1-
G||---------------------------------|--------------------------------*||-2-
D||---------10------------------10--|-----------------------------3--*||-3-
A||---------------------------------|---------1---3---3-3-3-3-3-3-0-0-||-3-
E||-13--13------13------13--------13|-----1-----------1---------------||-1-

        
Comments

No comments yet