Gametabs
Home
Tabs
Random

Stage Select

Average rating: 5.000

1 ratings

Composer:

Tabber:

Style:

Instrument:

Created: July 30, 2012 at 12:00 AM

            Title: Stage Select
Album: Mega Man 8
Copyright: Capcom
Tempo = 150

Legend
L - tied note
x - dead note
h - hammer on/pull off
b - bend
s - slide
~ - vibrato
g - ghost note
> - accentuated note
t - trill
M - palm mute
. - staccato
P - popping (bass)
S - slapping (bass)
+ - tapping
W - wide vibrato
< - fade in
w - whammy bar
= - tremolo picking
v - brush up
^ - brush down
V - pick stroke up
n - pick stroke down


Synth

E ||---------------------------|----------------------------|
B ||---------------------------|----------------------------|
G ||o9s----7-----12----11-9L---|--9-----7-----12----11-9L---|
D ||o---9-----9-----9----------|-----9-----9-----9----------|
A ||---------------------------|----------------------------|
E ||---------------------------|----------------------------|


----------------------------|----------------------------|
-----------------------10s--|--12-10----10---------------|
--9-----7-----12----12------|--------12----12-11-9--7s---|
-----9-----9-----9----------|----------------------------|
----------------------------|----------------------------|
----------------------------|----------------------------|


----------------------------|----------------------------|
----------------------------|-----------------------10---|
--9-----7-----12----11-9L---|--9-----7-----12----12------|
-----9-----9-----9----------|-----9-----9-----9----------|
----------------------------|----------------------------|
----------------------------|----------------------------|


--10s-----------------------------------------------|
-----------13-------12----10----------------10s-----|
-----------------------------------12---------------|
----------------------------------------------------|
----------------------------------------------------|
----------------------------------------------------|


---------------------------------------------------|||
--12-------10-------------10-----------------------|||
--------------------12----------12----11----7-----o|||
--------------------------------------------------o|||
---------------------------------------------------|||
---------------------------------------------------|||




Chords

E ||------|-------|-------|----------|-------|-------|-------|---------|||
B ||------|-------|-------|----------|-------|-------|-------|---------|||
G ||o7----|-------|-------|-----7----|--7----|-------|-------|-----7--o|||
D ||o5----|--9----|--5----|--7--5----|--5----|--9----|--5----|--7--5--o|||
A ||------|--7----|--3----|--5-------|-------|--7----|--3----|--5------|||
E ||------|-------|-------|----------|-------|-------|-------|---------|||




Bass

G ||---------------------------|----------------------------|
D ||o--------------------------|----------------------------|
A ||o7-----7-----7-----7--7----|----------------------------|
E ||---------------------------|--8-----8-----8-----8--8----|
B ||---------------------------|----------------------------|


----------------------------|----------------------------|
----------------------------|----------------------------|
----------------------------|----------------------------|
--5-----5-----5-----5--5----|--7-----7-----7-----7--7----|
----------------------------|----------------------------|


----------------------------|----------------------------|
----------------------------|----------------------------|
--7-----7-----7-----7--7----|----------------------------|
----------------------------|--8-----8-----8-----8--8----|
----------------------------|----------------------------|


----------------------------|---------------------------|||
----------------------------|--------------------------o|||
----------------------------|--------------------------o|||
--5-----5-----5-----5--5----|--7-----7-----7-----7--7---|||
----------------------------|---------------------------|||


        
Comments

@Treeman3675 (January 10, 2013 at 12:26 AM)

Ah, the sweet nostalgia...