Gametabs
Home
Tabs
Random

Slash Man

Average rating: No ratings

Composer:

Tabber:

Style:

Instrument:

Created: March 14, 2010 at 12:00 AM

            Slash Man	
By Yuko Takehara and Makoto Tomozawa
Mega Man 7
Tabbed by Brainsick Fungus
01/31/10

e----------------------------------------------------|  |-7---9-10-12-10--9------2-5-7---9-10-12-14--12-10---|
B-3-2-2-3-2-2-3-2-2-3-5-3-2-----------2-----2-2------|  |--------------------10----------------------------10|
G---------------------------2-2-0-2-2---2-2-----2----|  |----------------------------------------------------|
D----------------------------------------------------|  |----------------------------------------------------|
A----------------------------------------------------|  |----------------------------------------------------|
E----------------------------------------------------|  |----------------------------------------------------|

e-10-9-7-9-7-------------10-9-7-9-7-5-9-7h9p7--------|  |-3-3-5-7-5-7-9--6-7-9-7-9-10-12-10-9--10-9----------|
B------------10---7h8p7------------------------------|  |-------------------------------------------12-11----|
G---------------9------------------------------------|  |----------------------------------------------------|
D----------------------------------------------------|  |----------------------------------------------------|
A----------------------------------------------------|  |----------------------------------------------------|
E----------------------------------------------------|  |----------------------------------------------------|

e------------10----9-10-9--------9-------------------|  |----10----9-10-9-12--------9-9----------------------|
B----9-11-12----12--------10--10---10-12-14-12-------|  |-12----12------------10-12--------9-11-12-----------|
G-11-------------------------------------------11----|  |-------------------------------11-------------------|
D----------------------------------------------------|  |----------------------------------------------------|
A----------------------------------------------------|  |----------------------------------------------------|
E----------------------------------------------------|  |----------------------------------------------------|

e----10----9-10-9--------9---------------------------|  |----10----9-10-9-12--10-12-14-14--------------------|
B-12----12--------10--10---10-12-14-12---------------|  |-12----12------------------------------11-12--------|
G--------------------------------------11------------|  |---------------------------------11-13--------------|
D----------------------------------------------------|  |----------------------------------------------------|
A----------------------------------------------------|  |----------------------------------------------------|
E----------------------------------------------------|  |----------------------------------------------------|

        
Comments

No comments yet