Gametabs
Home
Tabs
Random

Opening Stage

Average rating: No ratings

Composer:

Tabber:

Style:

Instrument:

Created: October 06, 2014 at 12:00 AM

            Opening Stage
Mega Man 7
Yuko Takehara, Toshihiko Horiyama, Makoto Tomozawa
ltm_1988
10/4/2014

    E   E   E   E   E   E   E   E     E   E   E   E   E   E   E   E
E||---------------------------------|---------------------------------|
B||---------------------------------|---------------------------------|
G||*------------0-------------------|-------------0---2---0-----------|
D||*2---2---4-------4---2---0---2---|-----2---4---------------4---2---|
A||---------------------------------|---------------------------------|
E||---------------------------------|---------------------------------|

    E   E   E   E   E   E   E   E     E   E   E   E   E   E   E   E
E||---------------------------------|---------------------------------|
B||---------------------------------|---------------------------------|
G||-------------0-------------------|-------------0---2---0-----------|
D||-2---2---4-------4---2---0---2---|-----2---4---------------4---2---|
A||---------------------------------|---------------------------------|
E||---------------------------------|---------------------------------|

    E   E   E   Q       E   E   E     E   E   E   Q       E   E   E
E||-0-------------------------------|-2-------------------------------|
B||---------0---0-----------0-------|---------0---0-----------0-------|
G||---------------------------------|---------------------------------|
D||-2---2-------2-------2-------2---|-1---1-------1-------1-------1---|
A||---------------------------------|---------------------------------|
E||---------------------------------|---------------------------------|

    E   E   E   Q       E   E   E     E   E   E   E   E   E   E   E
E||-3-------------------2---0---2---|-2-------------------------------|
B||---------0---------------0-------|-----0---0-------3-------4-------|
G||---------------------------------|-------------------------4-------|
D||-0---0-------0-------0-------0---|-1---1-------1-------1-------1---|
A||---------------------------------|---------------------------------|
E||---------------------------------|---------------------------------|

    E   E   E   Q       E   E   E     E   E   E   Q       E   E   E
E||-0-------------------------------|-2-------------------------------|
B||---------0---0-----------0-------|---------0---0-----------0-------|
G||---------------------------------|---------------------------------|
D||-2---2-------2-------2-------2---|-1---1-------1-------1-------1---|
A||---------------------------------|---------------------------------|
E||---------------------------------|---------------------------------|

    E   E   E   Q       E   E   E     E   E   E   E   E   E   E   E
E||-7-------------------5---3---5---|-----8-----------7-------5-------|
B||-8-------------------------------|-7-------------------------------|
G||-------------------------4-------|-------------------------4-------|
D||-0---0---9---0-------0-------0---|---------9-----------------------|
A||---------------------------------|-6---6-------6-------6-------6---|
E||---------------------------------|---------------------------------|

    E   E   E   Q       E   E   E     E   E   E   E   E   E   E   E
E||-3-----------0-----------3-------|-7-----------5-----------3-------|
B||-5~------------------------------|---------------------------------|
G||---------------------------------|---------------------------------|
D||---------------------------------|-----------------4---2---0-------|
A||-4---4---4---4-------4---4---4---|-----4---4---4---------------4---|
E||---------------------------------|---------------------------------|

    E   E   E   Q       E   E   E     E   E   E   E   E   E   E   E
E||-2-----------------------2-------|-5-----------3-----------2-------|
B||-3~----------3~------------------|---------------------------------|
G||---------------------------------|---------------------------------|
D||---------------------------------|-----------------2---0-----------|
A||-3---3---3---3-------3---3---3---|-----3---3---3-----------3---2---|
E||---------------------------------|---------------------------------|

    E   E   E   Q       E   E   E     E   E   E   E   E   E   E   E
E||-0-----------------------0-------|-3-----------2-----------0-------|
B||-1~----------1~------------------|---------------------------------|
G||---------------------------------|---------------------------------|
D||---------------------------------|-----------------0---------------|
A||-0---0---0---0-------0---0---0---|-----0---0---0-------3---2---0---|
E||---------------------------------|---------------------------------|

    Q       Q       Q       E   E     E   Q.          Q       Q
E||-7-------7-------7-------7---7---|---------------------------------|
B||-7-------7-------7-------7---7---|-0-------------------------------|
G||---------------------------------|---------------------------------|
D||---------------------------------|-----------------0-------1-------|
A||---------------------------------|-----2---------------------------|
E||-7-------7-------7-------7---7---|---------------------------------|

    E   E   E   Q       E   E   E     E   E   E   Q       E   E   E
E||-0-------------------------------|-2-------------------------------|
B||---------0---0-----------0-------|---------0---0-----------0-------|
G||---------------------------------|---------------------------------|
D||-2---2-------2-------2-------2---|-1---1-------1-------1-------1---|
A||---------------------------------|---------------------------------|
E||---------------------------------|---------------------------------|

    E   E   E   Q       E   E   E     E   E   E   E   E   E   E   E
E||-3-------------------2---0---2---|-2-------------------------------|
B||---------0---------------0-------|-----0---0-------3-------4-------|
G||---------------------------------|-------------------------4-------|
D||-0---0-------0-------0-------0---|-1---1-------1-------1-------1---|
A||---------------------------------|---------------------------------|
E||---------------------------------|---------------------------------|

    E   E   E   Q       E   E   E     E   E   E   Q       E   E   E
E||-0-------------------------------|-2-------------------------------|
B||---------0---0-----------0-------|---------0---0-----------0-------|
G||---------------------------------|---------------------------------|
D||-2---2-------2-------2-------2---|-1---1-------1-------1-------1---|
A||---------------------------------|---------------------------------|
E||---------------------------------|---------------------------------|

    E   E   E   Q       E   E   E     E   E   E   E   E   E   E   E
E||-7-------------------5---3---5---|-----8-----------7-------5-------|
B||-8-------------------------------|-7-------------------------------|
G||-------------------------4-------|-------------------------4-------|
D||-0---0---9---0-------0-------0---|---------9-----------------------|
A||---------------------------------|-6---6-------6-------6-------6---|
E||---------------------------------|---------------------------------|

    E   E   E   Q       E   E   E     E   E   E   E   E   E   E   E
E||-3-----------0-----------3-------|-7-----------5-----------3-------|
B||-5~------------------------------|---------------------------------|
G||---------------------------------|---------------------------------|
D||---------------------------------|-----------------4---2---0-------|
A||-4---4---4---4-------4---4---4---|-----4---4---4---------------4---|
E||---------------------------------|---------------------------------|

    E   E   E   Q       E   E   E     E   E   E   E   E   E   E   E
E||-2-----------------------2-------|-5-----------3-----------2-------|
B||-3~----------3~------------------|---------------------------------|
G||---------------------------------|---------------------------------|
D||---------------------------------|-----------------2---0-----------|
A||-3---3---3---3-------3---3---3---|-----3---3---3-----------3---2---|
E||---------------------------------|---------------------------------|

    E   E   E   Q       E   E   E     E   E   E   E   E   E   E   E
E||-0-----------------------0-------|-3-----------2-----------0-------|
B||-1~----------1~------------------|---------------------------------|
G||---------------------------------|---------------------------------|
D||---------------------------------|-----------------0---------------|
A||-0---0---0---0-------0---0---0---|-----0---0---0-------3---2---0---|
E||---------------------------------|---------------------------------|

    Q       Q       Q       E   E     W
E||-7-------7-------7-------7---7---|---------------------------------|
B||-7-------7-------7-------7---7---|---------------------------------|
G||---------------------------------|---------------------------------|
D||---------------------------------|---------------------------------|
A||---------------------------------|---------------------------------|
E||-7-------7-------7-------7---7---|---------------------------------|

    E   E   E   Q.          Q         E   E   E   Q.          Q
E||-8-----------7-----------5-------|-7-----------5-------------------|
B||---------8-----------------------|-----7---10--------------8-------|
G||-----9---------------------------|-7-------------------------------|
D||-10------------------------------|-0-----------0-------------------|
A||---------------------------------|---------------------------------|
E||-8-----------8-------------------|---------------------------------|

    E   E   E   Q.          Q         E   E   E   E   E   E   E   E
E||-5-----------3-------------------|-7---------------5---------------|
B||-0-------8---------------7-------|-5---0---5---7---8---7---5---0---|
G||-----7---------------------------|---------4-----------------------|
D||---------------------------------|-----------------0-------7---0---|
A||-------------2-------------------|-7-----------7-------------------|
E||-7-------------------------------|---------------------------------|

    E   E   E   Q.          Q         E   E   E   Q       E   E   E
E||-8-----------7-----------5-------|-10----------8-------7---8---7---|
B||---------8-----------------------|-----7---10----------------------|
G||-----9---------------------------|-7-------------------------------|
D||-10------------------------------|-0-----------0-------------------|
A||---------------------------------|---------------------------------|
E||-8-----------8-------------------|---------------------------------|

    E   E   E   E   E   E   E   E     E   E   E   E   E   E   E   E   x3 W
E||-7~------------------------------|---------------------------------||-0-
B||-0-------------------------------|-8---------------7---------------||-0-
G||-----------------7---------------|---------------------------------||-0-
D||---------------------------------|-0---0---0---0-------------------||-2-
A||---------------------------------|-----------------6---6---6---6---||-2-
E||-7---7---7---7---7---7---7---7---|---------------------------------||-0-

        
Comments

No comments yet